  0
SECTION
  2
HEADER
  9
$ACADVER
  1
AC1009
  9
$DWGCODEPAGE
  3
ansi_1252
  9
$INSBASE
 10
0.0
 20
0.0
 30
0.0
  9
$EXTMIN
 10
-224.0
 20
-224.0
 30
0.0
  9
$EXTMAX
 10
224.0
 20
224.0
 30
0.0
  9
$LIMMIN
 10
0.0
 20
0.0
  9
$LIMMAX
 10
12.0
 20
9.0
  9
$ORTHOMODE
 70
     0
  9
$REGENMODE
 70
     1
  9
$FILLMODE
 70
     1
  9
$QTEXTMODE
 70
     0
  9
$MIRRTEXT
 70
     1
  9
$DRAGMODE
 70
     2
  9
$LTSCALE
 40
1.0
  9
$OSMODE
 70
    37
  9
$ATTMODE
 70
     1
  9
$TEXTSIZE
 40
0.2
  9
$TRACEWID
 40
0.05
  9
$TEXTSTYLE
  7
STANDARD
  9
$CLAYER
  8
0
  9
$CELTYPE
  6
BYLAYER
  9
$CECOLOR
 62
   256
  9
$DIMSCALE
 40
1.0
  9
$DIMASZ
 40
0.18
  9
$DIMEXO
 40
0.0625
  9
$DIMDLI
 40
0.38
  9
$DIMRND
 40
0.0
  9
$DIMDLE
 40
0.0
  9
$DIMEXE
 40
0.18
  9
$DIMTP
 40
0.0
  9
$DIMTM
 40
0.0
  9
$DIMTXT
 40
0.18
  9
$DIMCEN
 40
0.09
  9
$DIMTSZ
 40
0.0
  9
$DIMTOL
 70
     0
  9
$DIMLIM
 70
     0
  9
$DIMTIH
 70
     1
  9
$DIMTOH
 70
     1
  9
$DIMSE1
 70
     0
  9
$DIMSE2
 70
     0
  9
$DIMTAD
 70
     0
  9
$DIMZIN
 70
     0
  9
$DIMBLK
  1

  9
$DIMASO
 70
     1
  9
$DIMSHO
 70
     1
  9
$DIMPOST
  1

  9
$DIMAPOST
  1

  9
$DIMALT
 70
     0
  9
$DIMALTD
 70
     2
  9
$DIMALTF
 40
25.4
  9
$DIMLFAC
 40
1.0
  9
$DIMTOFL
 70
     0
  9
$DIMTVP
 40
0.0
  9
$DIMTIX
 70
     0
  9
$DIMSOXD
 70
     0
  9
$DIMSAH
 70
     0
  9
$DIMBLK1
  1

  9
$DIMBLK2
  1

  9
$DIMSTYLE
  2
STANDARD
  9
$DIMCLRD
 70
     0
  9
$DIMCLRE
 70
     0
  9
$DIMCLRT
 70
     0
  9
$DIMTFAC
 40
1.0
  9
$DIMGAP
 40
0.09
  9
$LUNITS
 70
     2
  9
$LUPREC
 70
     4
  9
$SKETCHINC
 40
0.1
  9
$FILLETRAD
 40
0.5
  9
$AUNITS
 70
     0
  9
$AUPREC
 70
     0
  9
$MENU
  1
.
  9
$ELEVATION
 40
0.0
  9
$PELEVATION
 40
0.0
  9
$THICKNESS
 40
0.0
  9
$LIMCHECK
 70
     0
  9
$CHAMFERA
 40
0.0
  9
$CHAMFERB
 40
0.0
  9
$SKPOLY
 70
     0
  9
$TDCREATE
 40
2454910.5
  9
$TDUPDATE
 40
2459848.732757488
  9
$TDINDWG
 40
0.0000000116
  9
$TDUSRTIMER
 40
0.0000000116
  9
$USRTIMER
 70
     1
  9
$ANGBASE
 50
0.0
  9
$ANGDIR
 70
     0
  9
$PDMODE
 70
     0
  9
$PDSIZE
 40
0.0
  9
$PLINEWID
 40
0.0
  9
$COORDS
 70
     1
  9
$SPLFRAME
 70
     0
  9
$SPLINETYPE
 70
     6
  9
$SPLINESEGS
 70
     8
  9
$ATTDIA
 70
     0
  9
$ATTREQ
 70
     1
  9
$HANDLING
 70
     1
  9
$HANDSEED
  5
EE9
  9
$SURFTAB1
 70
     6
  9
$SURFTAB2
 70
     6
  9
$SURFTYPE
 70
     6
  9
$SURFU
 70
     6
  9
$SURFV
 70
     6
  9
$UCSNAME
  2

  9
$UCSORG
 10
0.0
 20
0.0
 30
0.0
  9
$UCSXDIR
 10
1.0
 20
0.0
 30
0.0
  9
$UCSYDIR
 10
0.0
 20
1.0
 30
0.0
  9
$PUCSNAME
  2

  9
$PUCSORG
 10
0.0
 20
0.0
 30
0.0
  9
$PUCSXDIR
 10
1.0
 20
0.0
 30
0.0
  9
$PUCSYDIR
 10
0.0
 20
1.0
 30
0.0
  9
$USERI1
 70
     0
  9
$USERI2
 70
     0
  9
$USERI3
 70
     0
  9
$USERI4
 70
     0
  9
$USERI5
 70
     0
  9
$USERR1
 40
0.0
  9
$USERR2
 40
0.0
  9
$USERR3
 40
0.0
  9
$USERR4
 40
0.0
  9
$USERR5
 40
0.0
  9
$WORLDVIEW
 70
     1
  9
$SHADEDGE
 70
     3
  9
$SHADEDIF
 70
    70
  9
$TILEMODE
 70
     1
  9
$MAXACTVP
 70
    64
  9
$PLIMCHECK
 70
     0
  9
$PEXTMIN
 10
1.000000000000000E+20
 20
1.000000000000000E+20
 30
1.000000000000000E+20
  9
$PEXTMAX
 10
-1.000000000000000E+20
 20
-1.000000000000000E+20
 30
-1.000000000000000E+20
  9
$PLIMMIN
 10
0.0
 20
0.0
  9
$PLIMMAX
 10
12.0
 20
9.0
  9
$UNITMODE
 70
     0
  9
$VISRETAIN
 70
     1
  9
$PLINEGEN
 70
     0
  9
$PSLTSCALE
 70
     1
  0
ENDSEC
  0
SECTION
  2
TABLES
  0
TABLE
  2
VPORT
 70
     1
  0
VPORT
  2
*ACTIVE
 70
     0
 10
0.0
 20
0.0
 11
1.0
 21
1.0
 12
10.42990654205607
 22
4.5
 13
0.0
 23
0.0
 14
0.5
 24
0.5
 15
0.5
 25
0.5
 16
0.0
 26
0.0
 36
1.0
 17
0.0
 27
0.0
 37
0.0
 40
9.0
 41
1.972972972850329
 42
50.0
 43
0.0
 44
0.0
 50
0.0
 51
0.0
 71
     0
 72
   100
 73
     1
 74
     3
 75
     0
 76
     0
 77
     0
 78
     0
  0
ENDTAB
  0
TABLE
  2
LTYPE
 70
     2
  0
LTYPE
  2
CONTINUOUS
 70
     0
  3
Solid line
 72
    65
 73
     0
 40
0.0
  0
LTYPE
  2
CONTINUOUS2
 70
     0
  3
Solid Line
 72
    65
 73
     0
 40
0.0
  0
ENDTAB
  0
TABLE
  2
LAYER
 70
     2
  0
LAYER
  2
0
 70
     0
 62
     7
  6
CONTINUOUS
  0
LAYER
  2
LAYER_1
 70
     0
 62
     7
  6
CONTINUOUS
  0
ENDTAB
  0
TABLE
  2
STYLE
 70
     1
  0
STYLE
  2
STANDARD
 70
     0
 40
0.0
 41
1.0
 50
0.0
 71
     0
 42
0.2
  3
txt
  4

  0
ENDTAB
  0
TABLE
  2
VIEW
 70
     0
  0
ENDTAB
  0
TABLE
  2
UCS
 70
     0
  0
ENDTAB
  0
TABLE
  2
APPID
 70
     1
  0
APPID
  2
ACAD
 70
     0
  0
ENDTAB
  0
TABLE
  2
DIMSTYLE
 70
     1
  0
DIMSTYLE
  2
STANDARD
 70
     0
  3

  4

  5

  6

  7

 40
1.0
 41
0.18
 42
0.0625
 43
0.38
 44
0.18
 45
0.0
 46
0.0
 47
0.0
 48
0.0
140
0.18
141
0.09
142
0.0
143
25.4
144
1.0
145
0.0
146
1.0
147
0.09
 71
     0
 72
     0
 73
     1
 74
     1
 75
     0
 76
     0
 77
     0
 78
     0
170
     0
171
     2
172
     0
173
     0
174
     0
175
     0
176
     0
177
     0
178
     0
  0
ENDTAB
  0
ENDSEC
  0
SECTION
  2
BLOCKS
  0
BLOCK
  8
0
  2
$MODEL_SPACE
 70
     0
 10
0.0
 20
0.0
 30
0.0
  3
$MODEL_SPACE
  1

  0
ENDBLK
  5
21
  8
0
  0
BLOCK
 67
     1
  8
0
  2
$PAPER_SPACE
 70
     0
 10
0.0
 20
0.0
 30
0.0
  3
$PAPER_SPACE
  1

  0
ENDBLK
  5
1D
 67
     1
  8
0
  0
ENDSEC
  0
SECTION
  2
ENTITIES
  0
POLYLINE
  5
70
  8
LAYER_1
 66
     1
 10
0.0
 20
0.0
 30
0.0
 70
     1
  0
VERTEX
  5
CA
  8
LAYER_1
 10
-0.0000000000000002
 20
224.0
 30
0.0
 42
0.414213562373095
  0
VERTEX
  5
CB
  8
LAYER_1
 10
-224.0
 20
0.0000000000000002
 30
0.0
 42
0.414213562373095
  0
VERTEX
  5
CC
  8
LAYER_1
 10
0.0000000000000002
 20
-224.0
 30
0.0
 42
0.414213562373095
  0
VERTEX
  5
CD
  8
LAYER_1
 10
224.0
 20
-0.0000000000000002
 30
0.0
 42
0.414213562373095
  0
SEQEND
  5
E96
  8
LAYER_1
  0
POLYLINE
  5
71
  8
LAYER_1
 66
     1
 10
0.0
 20
0.0
 30
0.0
 70
     1
  0
VERTEX
  5
CE
  8
LAYER_1
 10
-10.34959072305593
 20
172.4283765347885
 30
0.0
  0
VERTEX
  5
CF
  8
LAYER_1
 10
-14.64699863574352
 20
172.4283765347885
 30
0.0
  0
VERTEX
  5
D0
  8
LAYER_1
 10
-14.64699863574352
 20
199.81241473397
 30
0.0
  0
VERTEX
  5
D1
  8
LAYER_1
 10
-15.05006714699864
 20
199.4423601637108
 30
0.0
  0
VERTEX
  5
D2
  8
LAYER_1
 10
-15.48335180763983
 20
199.0723055934516
 30
0.0
  0
VERTEX
  5
D3
  8
LAYER_1
 10
-15.94685261766712
 20
198.7022510231923
 30
0.0
  0
VERTEX
  5
D4
  8
LAYER_1
 10
-16.44056957708049
 20
198.3321964529331
 30
0.0
  0
VERTEX
  5
D5
  8
LAYER_1
 10
-16.96450268587994
 20
197.962141882674
 30
0.0
  0
VERTEX
  5
D6
  8
LAYER_1
 10
-17.51865194406548
 20
197.5920873124147
 30
0.0
  0
VERTEX
  5
D7
  8
LAYER_1
 10
-18.10301735163711
 20
197.2220327421555
 30
0.0
  0
VERTEX
  5
D8
  8
LAYER_1
 10
-18.71759890859482
 20
196.8519781718963
 30
0.0
  0
VERTEX
  5
D9
  8
LAYER_1
 10
-19.33926820429741
 20
196.4934878069577
 30
0.0
  0
VERTEX
  5
DA
  8
LAYER_1
 10
-19.94489682810369
 20
196.1581258526603
 30
0.0
  0
VERTEX
  5
DB
  8
LAYER_1
 10
-20.53448478001364
 20
195.8458923090041
 30
0.0
  0
VERTEX
  5
DC
  8
LAYER_1
 10
-21.10803206002728
 20
195.5567871759891
 30
0.0
  0
VERTEX
  5
DD
  8
LAYER_1
 10
-21.66553866814461
 20
195.2908104536153
 30
0.0
  0
VERTEX
  5
DE
  8
LAYER_1
 10
-22.20700460436562
 20
195.0479621418827
 30
0.0
  0
VERTEX
  5
DF
  8
LAYER_1
 10
-22.73242986869031
 20
194.8282422407913
 30
0.0
  0
VERTEX
  5
E0
  8
LAYER_1
 10
-23.24181446111869
 20
194.6316507503411
 30
0.0
  0
VERTEX
  5
E1
  8
LAYER_1
 10
-23.24181446111869
 20
198.7858117326057
 30
0.0
  0
VERTEX
  5
E2
  8
LAYER_1
 10
-22.79472736186903
 20
199.0004956087994
 30
0.0
  0
VERTEX
  5
E3
  8
LAYER_1
 10
-22.35472800136426
 20
199.2207750682128
 30
0.0
  0
VERTEX
  5
E4
  8
LAYER_1
 10
-21.92181637960437
 20
199.4466501108458
 30
0.0
  0
VERTEX
  5
E5
  8
LAYER_1
 10
-21.49599249658936
 20
199.6781207366985
 30
0.0
  0
VERTEX
  5
E6
  8
LAYER_1
 10
-21.07725635231924
 20
199.9151869457708
 30
0.0
  0
VERTEX
  5
E7
  8
LAYER_1
 10
-20.665607946794
 20
200.1578487380627
 30
0.0
  0
VERTEX
  5
E8
  8
LAYER_1
 10
-20.26104728001364
 20
200.4061061135743
 30
0.0
  0
VERTEX
  5
E9
  8
LAYER_1
 10
-19.86357435197817
 20
200.6599590723056
 30
0.0
  0
VERTEX
  5
EA
  8
LAYER_1
 10
-19.47318916268759
 20
200.9194076142565
 30
0.0
  0
VERTEX
  5
EB
  8
LAYER_1
 10
-19.08989171214188
 20
201.184451739427
 30
0.0
  0
VERTEX
  5
EC
  8
LAYER_1
 10
-18.71368200034106
 20
201.4550914478172
 30
0.0
  0
VERTEX
  5
ED
  8
LAYER_1
 10
-18.34456002728513
 20
201.731326739427
 30
0.0
  0
VERTEX
  5
EE
  8
LAYER_1
 10
-17.98252579297408
 20
202.0131576142565
 30
0.0
  0
VERTEX
  5
EF
  8
LAYER_1
 10
-17.62757929740791
 20
202.3005840723056
 30
0.0
  0
VERTEX
  5
F0
  8
LAYER_1
 10
-17.27972054058663
 20
202.5936061135743
 30
0.0
  0
VERTEX
  5
F1
  8
LAYER_1
 10
-16.93894952251023
 20
202.8922237380627
 30
0.0
  0
VERTEX
  5
F2
  8
LAYER_1
 10
-16.60787751534788
 20
203.193079595839
 30
0.0
  0
VERTEX
  5
F3
  8
LAYER_1
 10
-16.28911579126876
 20
203.4928163369713
 30
0.0
  0
VERTEX
  5
F4
  8
LAYER_1
 10
-15.98266435027285
 20
203.7914339614597
 30
0.0
  0
VERTEX
  5
F5
  8
LAYER_1
 10
-15.68852319236016
 20
204.0889324693042
 30
0.0
  0
VERTEX
  5
F6
  8
LAYER_1
 10
-15.4066923175307
 20
204.3853118605048
 30
0.0
  0
VERTEX
  5
F7
  8
LAYER_1
 10
-15.13717172578445
 20
204.6805721350614
 30
0.0
  0
VERTEX
  5
F8
  8
LAYER_1
 10
-14.87996141712142
 20
204.9747132929741
 30
0.0
  0
VERTEX
  5
F9
  8
LAYER_1
 10
-14.63506139154161
 20
205.2677353342428
 30
0.0
  0
VERTEX
  5
FA
  8
LAYER_1
 10
-14.40247164904502
 20
205.5596382588676
 30
0.0
  0
VERTEX
  5
FB
  8
LAYER_1
 10
-14.18219218963165
 20
205.8504220668485
 30
0.0
  0
VERTEX
  5
FC
  8
LAYER_1
 10
-13.9742230133015
 20
206.1400867581855
 30
0.0
  0
VERTEX
  5
FD
  8
LAYER_1
 10
-13.77856412005457
 20
206.4286323328785
 30
0.0
  0
VERTEX
  5
FE
  8
LAYER_1
 10
-13.59521550989086
 20
206.7160587909277
 30
0.0
  0
VERTEX
  5
FF
  8
LAYER_1
 10
-13.42417718281037
 20
207.0023661323328
 30
0.0
  0
VERTEX
  5
100
  8
LAYER_1
 10
-13.2654491388131
 20
207.2875543570941
 30
0.0
  0
VERTEX
  5
101
  8
LAYER_1
 10
-13.11903137789905
 20
207.5716234652114
 30
0.0
  0
VERTEX
  5
102
  8
LAYER_1
 10
-10.34959072305593
 20
207.5716234652114
 30
0.0
  0
SEQEND
  5
E97
  8
LAYER_1
  0
POLYLINE
  5
72
  8
LAYER_1
 66
     1
 10
0.0
 20
0.0
 30
0.0
 70
     1
  0
VERTEX
  5
103
  8
LAYER_1
 10
23.24181446111869
 20
176.5586630286494
 30
0.0
  0
VERTEX
  5
104
  8
LAYER_1
 10
23.24181446111869
 20
172.4283765347885
 30
0.0
  0
VERTEX
  5
105
  8
LAYER_1
 10
0.1074351978171855
 20
172.4283765347885
 30
0.0
  0
VERTEX
  5
106
  8
LAYER_1
 10
0.1048239256480183
 20
172.814471776944
 30
0.0
  0
VERTEX
  5
107
  8
LAYER_1
 10
0.1208645975443352
 20
173.1968366302865
 30
0.0
  0
VERTEX
  5
108
  8
LAYER_1
 10
0.1555572135061362
 20
173.5754710948158
 30
0.0
  0
VERTEX
  5
109
  8
LAYER_1
 10
0.2089017735334215
 20
173.9503751705321
 30
0.0
  0
VERTEX
  5
10A
  8
LAYER_1
 10
0.2808982776261911
 20
174.3215488574352
 30
0.0
  0
VERTEX
  5
10B
  8
LAYER_1
 10
0.371546725784445
 20
174.6889921555252
 30
0.0
  0
VERTEX
  5
10C
  8
LAYER_1
 10
0.4808471180081834
 20
175.0527050648022
 30
0.0
  0
VERTEX
  5
10D
  8
LAYER_1
 10
0.6087994542974062
 20
175.412687585266
 30
0.0
  0
VERTEX
  5
10E
  8
LAYER_1
 10
0.7233690207196434
 20
175.7078546001023
 30
0.0
  0
VERTEX
  5
10F
  8
LAYER_1
 10
0.846238702251021
 20
176.0024620566166
 30
0.0
  0
VERTEX
  5
110
  8
LAYER_1
 10
0.9774084988915392
 20
176.296509954809
 30
0.0
  0
VERTEX
  5
111
  8
LAYER_1
 10
1.116878410641198
 20
176.5899982946794
 30
0.0
  0
VERTEX
  5
112
  8
LAYER_1
 10
1.264648437499997
 20
176.8829270762278
 30
0.0
  0
VERTEX
  5
113
  8
LAYER_1
 10
1.420718579467937
 20
177.1752962994543
 30
0.0
  0
VERTEX
  5
114
  8
LAYER_1
 10
1.757759208731238
 20
177.7583560709413
 30
0.0
  0
VERTEX
  5
115
  8
LAYER_1
 10
2.128000298431102
 20
178.3391776091405
 30
0.0
  0
VERTEX
  5
116
  8
LAYER_1
 10
2.531441848567527
 20
178.9177609140519
 30
0.0
  0
VERTEX
  5
117
  8
LAYER_1
 10
2.968083859140515
 20
179.4941059856753
 30
0.0
  0
VERTEX
  5
118
  8
LAYER_1
 10
3.437926330150065
 20
180.0682128240109
 30
0.0
  0
VERTEX
  5
119
  8
LAYER_1
 10
3.951414350272848
 20
180.6523917121419
 30
0.0
  0
VERTEX
  5
11A
  8
LAYER_1
 10
4.518993008185536
 20
181.2589529331514
 30
0.0
  0
VERTEX
  5
11B
  8
LAYER_1
 10
5.140662303888128
 20
181.8878964870395
 30
0.0
  0
VERTEX
  5
11C
  8
LAYER_1
 10
5.816422237380625
 20
182.5392223738062
 30
0.0
  0
VERTEX
  5
11D
  8
LAYER_1
 10
6.546272808663026
 20
183.2129305934515
 30
0.0
  0
VERTEX
  5
11E
  8
LAYER_1
 10
7.330214017735331
 20
183.9090211459754
 30
0.0
  0
VERTEX
  5
11F
  8
LAYER_1
 10
8.168245864597543
 20
184.6274940313779
 30
0.0
  0
VERTEX
  5
120
  8
LAYER_1
 10
9.060368349249657
 20
185.3683492496589
 30
0.0
  0
VERTEX
  5
121
  8
LAYER_1
 10
10.4290480047749
 20
186.5077965126194
 30
0.0
  0
VERTEX
  5
122
  8
LAYER_1
 10
11.68208560709413
 20
187.5864384379263
 30
0.0
  0
VERTEX
  5
123
  8
LAYER_1
 10
12.2652386383015
 20
188.1029573989597
 30
0.0
  0
VERTEX
  5
124
  8
LAYER_1
 10
12.81948115620736
 20
188.6042750255798
 30
0.0
  0
VERTEX
  5
125
  8
LAYER_1
 10
13.34481316081173
 20
189.0903913177865
 30
0.0
  0
VERTEX
  5
126
  8
LAYER_1
 10
13.8412346521146
 20
189.5613062755798
 30
0.0
  0
VERTEX
  5
127
  8
LAYER_1
 10
14.30874563011596
 20
190.0170198989597
 30
0.0
  0
VERTEX
  5
128
  8
LAYER_1
 10
14.74734609481582
 20
190.4575321879263
 30
0.0
  0
VERTEX
  5
129
  8
LAYER_1
 10
15.15703604621419
 20
190.8828431424795
 30
0.0
  0
VERTEX
  5
12A
  8
LAYER_1
 10
15.53781548431105
 20
191.2929527626194
 30
0.0
  0
VERTEX
  5
12B
  8
LAYER_1
 10
15.88968440910641
 20
191.6878610483458
 30
0.0
  0
VERTEX
  5
12C
  8
LAYER_1
 10
16.21264282060027
 20
192.0675679996589
 30
0.0
  0
VERTEX
  5
12D
  8
LAYER_1
 10
16.50669071879263
 20
192.4320736165586
 30
0.0
  0
VERTEX
  5
12E
  8
LAYER_1
 10
16.77182810368349
 20
192.781377899045
 30
0.0
  0
VERTEX
  5
12F
  8
LAYER_1
 10
17.01467641541609
 20
193.1219157678206
 30
0.0
  0
VERTEX
  5
130
  8
LAYER_1
 10
17.24185709413369
 20
193.460122143588
 30
0.0
  0
VERTEX
  5
131
  8
LAYER_1
 10
17.45337013983629
 20
193.7959970263472
 30
0.0
  0
VERTEX
  5
132
  8
LAYER_1
 10
17.64921555252387
 20
194.1295404160982
 30
0.0
  0
VERTEX
  5
133
  8
LAYER_1
 10
17.82939333219645
 20
194.460752312841
 30
0.0
  0
VERTEX
  5
134
  8
LAYER_1
 10
17.99390347885402
 20
194.7896327165757
 30
0.0
  0
VERTEX
  5
135
  8
LAYER_1
 10
18.14274599249659
 20
195.1161816273022
 30
0.0
  0
VERTEX
  5
136
  8
LAYER_1
 10
18.27592087312415
 20
195.4403990450205
 30
0.0
  0
VERTEX
  5
137
  8
LAYER_1
 10
18.3934281207367
 20
195.7622849697306
 30
0.0
  0
VERTEX
  5
138
  8
LAYER_1
 10
18.49526773533425
 20
196.0818394014325
 30
0.0
  0
VERTEX
  5
139
  8
LAYER_1
 10
18.58143971691678
 20
196.3990623401262
 30
0.0
  0
VERTEX
  5
13A
  8
LAYER_1
 10
18.65194406548431
 20
196.7139537858117
 30
0.0
  0
VERTEX
  5
13B
  8
LAYER_1
 10
18.70678078103683
 20
197.0265137384891
 30
0.0
  0
VERTEX
  5
13C
  8
LAYER_1
 10
18.74594986357435
 20
197.3367421981582
 30
0.0
  0
VERTEX
  5
13D
  8
LAYER_1
 10
18.76945131309686
 20
197.6446391648192
 30
0.0
  0
VERTEX
  5
13E
  8
LAYER_1
 10
18.77728512960437
 20
197.950204638472
 30
0.0
  0
VERTEX
  5
13F
  8
LAYER_1
 10
18.77015076099931
 20
198.2664017202421
 30
0.0
  0
VERTEX
  5
140
  8
LAYER_1
 10
18.74874765518418
 20
198.5763504007503
 30
0.0
  0
VERTEX
  5
141
  8
LAYER_1
 10
18.71307581215893
 20
198.8800506799965
 30
0.0
  0
VERTEX
  5
142
  8
LAYER_1
 10
18.6631352319236
 20
199.1775025579809
 30
0.0
  0
VERTEX
  5
143
  8
LAYER_1
 10
18.59892591447817
 20
199.4687060347032
 30
0.0
  0
VERTEX
  5
144
  8
LAYER_1
 10
18.52044785982265
 20
199.7536611101637
 30
0.0
  0
VERTEX
  5
145
  8
LAYER_1
 10
18.42770106795702
 20
200.0323677843622
 30
0.0
  0
VERTEX
  5
146
  8
LAYER_1
 10
18.32068553888131
 20
200.3048260572988
 30
0.0
  0
VERTEX
  5
147
  8
LAYER_1
 10
18.19940127259549
 20
200.5710359289734
 30
0.0
  0
VERTEX
  5
148
  8
LAYER_1
 10
18.06384826909959
 20
200.8309973993861
 30
0.0
  0
VERTEX
  5
149
  8
LAYER_1
 10
17.91402652839358
 20
201.0847104685368
 30
0.0
  0
VERTEX
  5
14A
  8
LAYER_1
 10
17.74993605047749
 20
201.3321751364256
 30
0.0
  0
VERTEX
  5
14B
  8
LAYER_1
 10
17.57157683535129
 20
201.5733914030525
 30
0.0
  0
VERTEX
  5
14C
  8
LAYER_1
 10
17.37894888301501
 20
201.8083592684174
 30
0.0
  0
VERTEX
  5
14D
  8
LAYER_1
 10
17.17205219346862
 20
202.0370787325204
 30
0.0
  0
VERTEX
  5
14E
  8
LAYER_1
 10
16.95088676671214
 20
202.2595497953615
 30
0.0
  0
VERTEX
  5
14F
  8
LAYER_1
 10
16.71825039435538
 20
202.4720420681276
 30
0.0
  0
VERTEX
  5
150
  8
LAYER_1
 10
16.47694086800818
 20
202.6708251620055
 30
0.0
  0
VERTEX
  5
151
  8
LAYER_1
 10
16.22695818767053
 20
202.8558990769952
 30
0.0
  0
VERTEX
  5
152
  8
LAYER_1
 10
15.96830235334242
 20
203.0272638130969
 30
0.0
  0
VERTEX
  5
153
  8
LAYER_1
 10
15.70097336502387
 20
203.1849193703104
 30
0.0
  0
VERTEX
  5
154
  8
LAYER_1
 10
15.42497122271487
 20
203.3288657486357
 30
0.0
  0
VERTEX
  5
155
  8
LAYER_1
 10
15.14029592641541
 20
203.459102948073
 30
0.0
  0
VERTEX
  5
156
  8
LAYER_1
 10
14.84694747612551
 20
203.5756309686221
 30
0.0
  0
VERTEX
  5
157
  8
LAYER_1
 10
14.54492587184515
 20
203.6784498102831
 30
0.0
  0
VERTEX
  5
158
  8
LAYER_1
 10
14.23423111357435
 20
203.7675594730559
 30
0.0
  0
VERTEX
  5
159
  8
LAYER_1
 10
13.91486320131309
 20
203.8429599569407
 30
0.0
  0
VERTEX
  5
15A
  8
LAYER_1
 10
13.58682213506139
 20
203.9046512619372
 30
0.0
  0
VERTEX
  5
15B
  8
LAYER_1
 10
13.25010791481923
 20
203.9526333880457
 30
0.0
  0
VERTEX
  5
15C
  8
LAYER_1
 10
12.90472054058663
 20
203.986906335266
 30
0.0
  0
VERTEX
  5
15D
  8
LAYER_1
 10
12.55066001236357
 20
204.0074701035982
 30
0.0
  0
VERTEX
  5
15E
  8
LAYER_1
 10
12.18792633015007
 20
204.0143246930423
 30
0.0
  0
VERTEX
  5
15F
  8
LAYER_1
 10
11.80481539904502
 20
204.0070504348567
 30
0.0
  0
VERTEX
  5
160
  8
LAYER_1
 10
11.43140347885402
 20
203.9852276603001
 30
0.0
  0
VERTEX
  5
161
  8
LAYER_1
 10
11.06769056957708
 20
203.9488563693724
 30
0.0
  0
VERTEX
  5
162
  8
LAYER_1
 10
10.71367667121418
 20
203.8979365620737
 30
0.0
  0
VERTEX
  5
163
  8
LAYER_1
 10
10.36936178376535
 20
203.8324682384038
 30
0.0
  0
VERTEX
  5
164
  8
LAYER_1
 10
10.03474590723056
 20
203.7524513983629
 30
0.0
  0
VERTEX
  5
165
  8
LAYER_1
 10
9.709829041609819
 20
203.6578860419509
 30
0.0
  0
VERTEX
  5
166
  8
LAYER_1
 10
9.394611186903134
 20
203.5487721691678
 30
0.0
  0
VERTEX
  5
167
  8
LAYER_1
 10
9.0890923431105
 20
203.4251097800137
 30
0.0
  0
VERTEX
  5
168
  8
LAYER_1
 10
8.793272510231922
 20
203.2868988744884
 30
0.0
  0
VERTEX
  5
169
  8
LAYER_1
 10
8.507151688267392
 20
203.1341394525921
 30
0.0
  0
VERTEX
  5
16A
  8
LAYER_1
 10
8.230729877216913
 20
202.9668315143247
 30
0.0
  0
VERTEX
  5
16B
  8
LAYER_1
 10
7.964007077080487
 20
202.7849750596862
 30
0.0
  0
VERTEX
  5
16C
  8
LAYER_1
 10
7.706983287858113
 20
202.5885700886766
 30
0.0
  0
VERTEX
  5
16D
  8
LAYER_1
 10
7.459658509549792
 20
202.377616601296
 30
0.0
  0
VERTEX
  5
16E
  8
LAYER_1
 10
7.222032742155521
 20
202.1521145975443
 30
0.0
  0
VERTEX
  5
16F
  8
LAYER_1
 10
6.99643747868349
 20
201.9137427523874
 30
0.0
  0
VERTEX
  5
170
  8
LAYER_1
 10
6.785204212141879
 20
201.6641797407913
 30
0.0
  0
VERTEX
  5
171
  8
LAYER_1
 10
6.588332942530692
 20
201.4034255627558
 30
0.0
  0
VERTEX
  5
172
  8
LAYER_1
 10
6.405823669849928
 20
201.131480218281
 30
0.0
  0
VERTEX
  5
173
  8
LAYER_1
 10
6.237676394099587
 20
200.848343707367
 30
0.0
  0
VERTEX
  5
174
  8
LAYER_1
 10
6.08389111527967
 20
200.5540160300137
 30
0.0
  0
VERTEX
  5
175
  8
LAYER_1
 10
5.944467833390174
 20
200.248497186221
 30
0.0
  0
VERTEX
  5
176
  8
LAYER_1
 10
5.819406548431102
 20
199.9317871759891
 30
0.0
  0
VERTEX
  5
177
  8
LAYER_1
 10
5.708707260402453
 20
199.6038859993179
 30
0.0
  0
VERTEX
  5
178
  8
LAYER_1
 10
5.612369969304226
 20
199.2647936562074
 30
0.0
  0
VERTEX
  5
179
  8
LAYER_1
 10
5.530394675136423
 20
198.9145101466576
 30
0.0
  0
VERTEX
  5
17A
  8
LAYER_1
 10
5.462781377899042
 20
198.5530354706685
 30
0.0
  0
VERTEX
  5
17B
  8
LAYER_1
 10
5.409530077592084
 20
198.1803696282401
 30
0.0
  0
VERTEX
  5
17C
  8
LAYER_1
 10
5.370640774215548
 20
197.7965126193724
 30
0.0
  0
VERTEX
  5
17D
  8
LAYER_1
 10
5.346113467769436
 20
197.4014644440655
 30
0.0
  0
VERTEX
  5
17E
  8
LAYER_1
 10
5.335948158253748
 20
196.9952251023192
 30
0.0
  0
VERTEX
  5
17F
  8
LAYER_1
 10
0.9191678035470634
 20
197.4488403819918
 30
0.0
  0
VERTEX
  5
180
  8
LAYER_1
 10
0.9856619841405151
 20
198.0574066869884
 30
0.0
  0
VERTEX
  5
181
  8
LAYER_1
 10
1.071740706002725
 20
198.6476008270805
 30
0.0
  0
VERTEX
  5
182
  8
LAYER_1
 10
1.177403969133694
 20
199.2194228022681
 30
0.0
  0
VERTEX
  5
183
  8
LAYER_1
 10
1.302651773533421
 20
199.7728726125511
 30
0.0
  0
VERTEX
  5
184
  8
LAYER_1
 10
1.447484119201907
 20
200.3079502579297
 30
0.0
  0
VERTEX
  5
185
  8
LAYER_1
 10
1.611901006139151
 20
200.8246557384038
 30
0.0
  0
VERTEX
  5
186
  8
LAYER_1
 10
1.795902434345154
 20
201.3229890539734
 30
0.0
  0
VERTEX
  5
187
  8
LAYER_1
 10
1.999488403819915
 20
201.8029502046385
 30
0.0
  0
VERTEX
  5
188
  8
LAYER_1
 10
2.222658914563435
 20
202.264539190399
 30
0.0
  0
VERTEX
  5
189
  8
LAYER_1
 10
2.465413966575713
 20
202.7077560112551
 30
0.0
  0
VERTEX
  5
18A
  8
LAYER_1
 10
2.72775355985675
 20
203.1326006672067
 30
0.0
  0
VERTEX
  5
18B
  8
LAYER_1
 10
3.009677694406545
 20
203.5390731582538
 30
0.0
  0
VERTEX
  5
18C
  8
LAYER_1
 10
3.311186370225099
 20
203.9271734843963
 30
0.0
  0
VERTEX
  5
18D
  8
LAYER_1
 10
3.632279587312412
 20
204.2969016456344
 30
0.0
  0
VERTEX
  5
18E
  8
LAYER_1
 10
3.972957345668482
 20
204.6482576419679
 30
0.0
  0
VERTEX
  5
18F
  8
LAYER_1
 10
4.333219645293312
 20
204.981241473397
 30
0.0
  0
VERTEX
  5
190
  8
LAYER_1
 10
4.711201291780352
 20
205.2949205427182
 30
0.0
  0
VERTEX
  5
191
  8
LAYER_1
 10
5.105037090723052
 20
205.5883622527285
 30
0.0
  0
VERTEX
  5
192
  8
LAYER_1
 10
5.514727042121416
 20
205.8615666034277
 30
0.0
  0
VERTEX
  5
193
  8
LAYER_1
 10
5.940271145975441
 20
206.1145335948158
 30
0.0
  0
VERTEX
  5
194
  8
LAYER_1
 10
6.381669402285127
 20
206.3472632268929
 30
0.0
  0
VERTEX
  5
195
  8
LAYER_1
 10
6.838921811050474
 20
206.5597554996589
 30
0.0
  0
VERTEX
  5
196
  8
LAYER_1
 10
7.312028372271484
 20
206.7520104131139
 30
0.0
  0
VERTEX
  5
197
  8
LAYER_1
 10
7.800989085948156
 20
206.9240279672578
 30
0.0
  0
VERTEX
  5
198
  8
LAYER_1
 10
8.30580395208049
 20
207.0758081620907
 30
0.0
  0
VERTEX
  5
199
  8
LAYER_1
 10
8.826472970668485
 20
207.2073509976125
 30
0.0
  0
VERTEX
  5
19A
  8
LAYER_1
 10
9.36299614171214
 20
207.3186564738233
 30
0.0
  0
VERTEX
  5
19B
  8
LAYER_1
 10
9.915373465211458
 20
207.409724590723
 30
0.0
  0
VERTEX
  5
19C
  8
LAYER_1
 10
10.48360494116644
 20
207.4805553483117
 30
0.0
  0
VERTEX
  5
19D
  8
LAYER_1
 10
11.06769056957708
 20
207.5311487465893
 30
0.0
  0
VERTEX
  5
19E
  8
LAYER_1
 10
11.66763035044338
 20
207.5615047855559
 30
0.0
  0
VERTEX
  5
19F
  8
LAYER_1
 10
12.28342428376534
 20
207.5716234652114
 30
0.0
  0
VERTEX
  5
1A0
  8
LAYER_1
 10
12.90490706002728
 20
207.5607120779331
 30
0.0
  0
VERTEX
  5
1A1
  8
LAYER_1
 10
13.50997612551159
 20
207.5279779160982
 30
0.0
  0
VERTEX
  5
1A2
  8
LAYER_1
 10
14.09863148021828
 20
207.4734209797067
 30
0.0
  0
VERTEX
  5
1A3
  8
LAYER_1
 10
14.67087312414733
 20
207.3970412687585
 30
0.0
  0
VERTEX
  5
1A4
  8
LAYER_1
 10
15.22670105729877
 20
207.2988387832538
 30
0.0
  0
VERTEX
  5
1A5
  8
LAYER_1
 10
15.76611527967257
 20
207.1788135231924
 30
0.0
  0
VERTEX
  5
1A6
  8
LAYER_1
 10
16.28911579126876
 20
207.0369654885743
 30
0.0
  0
VERTEX
  5
1A7
  8
LAYER_1
 10
16.79570259208731
 20
206.8732946793997
 30
0.0
  0
VERTEX
  5
1A8
  8
LAYER_1
 10
17.28587568212824
 20
206.6878010956685
 30
0.0
  0
VERTEX
  5
1A9
  8
LAYER_1
 10
17.75963506139154
 20
206.4804847373806
 30
0.0
  0
VERTEX
  5
1AA
  8
LAYER_1
 10
18.21698072987722
 20
206.2513456045361
 30
0.0
  0
VERTEX
  5
1AB
  8
LAYER_1
 10
18.65791268758526
 20
206.000383697135
 30
0.0
  0
VERTEX
  5
1AC
  8
LAYER_1
 10
19.08243093451568
 20
205.7275990151774
 30
0.0
  0
VERTEX
  5
1AD
  8
LAYER_1
 10
19.49053547066848
 20
205.432991558663
 30
0.0
  0
VERTEX
  5
1AE
  8
LAYER_1
 10
19.88222629604365
 20
205.1165613275921
 30
0.0
  0
VERTEX
  5
1AF
  8
LAYER_1
 10
20.2575034106412
 20
204.7783083219645
 30
0.0
  0
VERTEX
  5
1B0
  8
LAYER_1
 10
20.61310272424965
 20
204.4239213847203
 30
0.0
  0
VERTEX
  5
1B1
  8
LAYER_1
 10
20.94576014665757
 20
204.0590893587994
 30
0.0
  0
VERTEX
  5
1B2
  8
LAYER_1
 10
21.25547567786493
 20
203.6838122442019
 30
0.0
  0
VERTEX
  5
1B3
  8
LAYER_1
 10
21.54224931787175
 20
203.2980900409277
 30
0.0
  0
VERTEX
  5
1B4
  8
LAYER_1
 10
21.80608106667803
 20
202.9019227489768
 30
0.0
  0
VERTEX
  5
1B5
  8
LAYER_1
 10
22.04697092428376
 20
202.4953103683493
 30
0.0
  0
VERTEX
  5
1B6
  8
LAYER_1
 10
22.26491889068894
 20
202.078252899045
 30
0.0
  0
VERTEX
  5
1B7
  8
LAYER_1
 10
22.45992496589358
 20
201.6507503410641
 30
0.0
  0
VERTEX
  5
1B8
  8
LAYER_1
 10
22.63198914989767
 20
201.2128026944065
 30
0.0
  0
VERTEX
  5
1B9
  8
LAYER_1
 10
22.78111144270122
 20
200.7644099590723
 30
0.0
  0
VERTEX
  5
1BA
  8
LAYER_1
 10
22.90729184430422
 20
200.3055721350614
 30
0.0
  0
VERTEX
  5
1BB
  8
LAYER_1
 10
23.01053035470668
 20
199.8362892223738
 30
0.0
  0
VERTEX
  5
1BC
  8
LAYER_1
 10
23.09082697390859
 20
199.3565612210095
 30
0.0
  0
VERTEX
  5
1BD
  8
LAYER_1
 10
23.14818170190995
 20
198.8663881309686
 30
0.0
  0
VERTEX
  5
1BE
  8
LAYER_1
 10
23.18259453871077
 20
198.365769952251
 30
0.0
  0
VERTEX
  5
1BF
  8
LAYER_1
 10
23.19406548431105
 20
197.8547066848568
 30
0.0
  0
VERTEX
  5
1C0
  8
LAYER_1
 10
23.1806360845839
 20
197.3305870566167
 30
0.0
  0
VERTEX
  5
1C1
  8
LAYER_1
 10
23.14034788540245
 20
196.8087056616644
 30
0.0
  0
VERTEX
  5
1C2
  8
LAYER_1
 10
23.07320088676671
 20
196.2890625
 30
0.0
  0
VERTEX
  5
1C3
  8
LAYER_1
 10
22.97919508867667
 20
195.7716575716235
 30
0.0
  0
VERTEX
  5
1C4
  8
LAYER_1
 10
22.85833049113233
 20
195.2564908765348
 30
0.0
  0
VERTEX
  5
1C5
  8
LAYER_1
 10
22.71060709413369
 20
194.743562414734
 30
0.0
  0
VERTEX
  5
1C6
  8
LAYER_1
 10
22.53602489768076
 20
194.232872186221
 30
0.0
  0
VERTEX
  5
1C7
  8
LAYER_1
 10
22.33458390177353
 20
193.7244201909959
 30
0.0
  0
VERTEX
  5
1C8
  8
LAYER_1
 10
22.10199415927694
 20
193.2137299624829
 30
0.0
  0
VERTEX
  5
1C9
  8
LAYER_1
 10
21.83396572305593
 20
192.6963250341064
 30
0.0
  0
VERTEX
  5
1CA
  8
LAYER_1
 10
21.5304985931105
 20
192.1722054058663
 30
0.0
  0
VERTEX
  5
1CB
  8
LAYER_1
 10
21.19159276944065
 20
191.6413710777626
 30
0.0
  0
VERTEX
  5
1CC
  8
LAYER_1
 10
20.81724825204638
 20
191.1038220497954
 30
0.0
  0
VERTEX
  5
1CD
  8
LAYER_1
 10
20.40746504092769
 20
190.5595583219645
 30
0.0
  0
VERTEX
  5
1CE
  8
LAYER_1
 10
19.96224313608458
 20
190.0085798942701
 30
0.0
  0
VERTEX
  5
1CF
  8
LAYER_1
 10
19.48158253751705
 20
189.4508867667121
 30
0.0
  0
VERTEX
  5
1D0
  8
LAYER_1
 10
18.94198179570259
 20
188.8637235675307
 30
0.0
  0
VERTEX
  5
1D1
  8
LAYER_1
 10
18.31993946111869
 20
188.2243349249659
 30
0.0
  0
VERTEX
  5
1D2
  8
LAYER_1
 10
17.61545553376535
 20
187.5327208390177
 30
0.0
  0
VERTEX
  5
1D3
  8
LAYER_1
 10
16.82853001364256
 20
186.7888813096862
 30
0.0
  0
VERTEX
  5
1D4
  8
LAYER_1
 10
15.95916290075034
 20
185.9928163369713
 30
0.0
  0
VERTEX
  5
1D5
  8
LAYER_1
 10
15.00735419508867
 20
185.1445259208731
 30
0.0
  0
VERTEX
  5
1D6
  8
LAYER_1
 10
13.97310389665757
 20
184.2440100613915
 30
0.0
  0
VERTEX
  5
1D7
  8
LAYER_1
 10
12.85641200545702
 20
183.2912687585266
 30
0.0
  0
VERTEX
  5
1D8
  8
LAYER_1
 10
11.0956684856753
 20
181.7983671555253
 30
0.0
  0
VERTEX
  5
1D9
  8
LAYER_1
 10
10.34511425648022
 20
181.1498390603684
 30
0.0
  0
VERTEX
  5
1DA
  8
LAYER_1
 10
9.681105047748973
 20
180.5665927694407
 30
0.0
  0
VERTEX
  5
1DB
  8
LAYER_1
 10
9.10364085948158
 20
180.0486282827422
 30
0.0
  0
VERTEX
  5
1DC
  8
LAYER_1
 10
8.612721691678033
 20
179.5959456002729
 30
0.0
  0
VERTEX
  5
1DD
  8
LAYER_1
 10
8.208347544338334
 20
179.2085447220327
 30
0.0
  0
VERTEX
  5
1DE
  8
LAYER_1
 10
7.89051841746248
 20
178.8864256480218
 30
0.0
  0
VERTEX
  5
1DF
  8
LAYER_1
 10
7.621930422919506
 20
178.5967609566848
 30
0.0
  0
VERTEX
  5
1E0
  8
LAYER_1
 10
7.365279672578441
 20
178.3067232264665
 30
0.0
  0
VERTEX
  5
1E1
  8
LAYER_1
 10
7.120566166439287
 20
178.016312457367
 30
0.0
  0
VERTEX
  5
1E2
  8
LAYER_1
 10
6.887789904502043
 20
177.7255286493861
 30
0.0
  0
VERTEX
  5
1E3
  8
LAYER_1
 10
6.666950886766708
 20
177.4343718025239
 30
0.0
  0
VERTEX
  5
1E4
  8
LAYER_1
 10
6.458049113233285
 20
177.1428419167803
 30
0.0
  0
VERTEX
  5
1E5
  8
LAYER_1
 10
6.26108458390177
 20
176.8509389921555
 30
0.0
  0
VERTEX
  5
1E6
  8
LAYER_1
 10
6.076057298772166
 20
176.5586630286494
 30
0.0
  0
SEQEND
  5
E98
  8
LAYER_1
  0
POLYLINE
  5
73
  8
LAYER_1
 66
     1
 10
0.0
 20
0.0
 30
0.0
 70
     1
  0
VERTEX
  5
1E7
  8
LAYER_1
 10
100.1807639836289
 20
146.6341543097939
 30
0.0
  0
VERTEX
  5
1E8
  8
LAYER_1
 10
95.88335607094133
 20
146.6341543097939
 30
0.0
  0
VERTEX
  5
1E9
  8
LAYER_1
 10
95.88335607094133
 20
174.0181925089753
 30
0.0
  0
VERTEX
  5
1EA
  8
LAYER_1
 10
95.48028755968622
 20
173.6481379387161
 30
0.0
  0
VERTEX
  5
1EB
  8
LAYER_1
 10
95.04700289904501
 20
173.2780833684569
 30
0.0
  0
VERTEX
  5
1EC
  8
LAYER_1
 10
94.58350208901771
 20
172.9080287981977
 30
0.0
  0
VERTEX
  5
1ED
  8
LAYER_1
 10
94.08978512960435
 20
172.5379742279385
 30
0.0
  0
VERTEX
  5
1EE
  8
LAYER_1
 10
93.5658520208049
 20
172.1679196576793
 30
0.0
  0
VERTEX
  5
1EF
  8
LAYER_1
 10
93.01170276261936
 20
171.7978650874201
 30
0.0
  0
VERTEX
  5
1F0
  8
LAYER_1
 10
92.42733735504774
 20
171.4278105171609
 30
0.0
  0
VERTEX
  5
1F1
  8
LAYER_1
 10
91.81275579809004
 20
171.0577559469016
 30
0.0
  0
VERTEX
  5
1F2
  8
LAYER_1
 10
91.19108650238745
 20
170.6992655819631
 30
0.0
  0
VERTEX
  5
1F3
  8
LAYER_1
 10
90.58545787858117
 20
170.3639036276656
 30
0.0
  0
VERTEX
  5
1F4
  8
LAYER_1
 10
89.99586992667122
 20
170.0516700840094
 30
0.0
  0
VERTEX
  5
1F5
  8
LAYER_1
 10
89.42232264665756
 20
169.7625649509944
 30
0.0
  0
VERTEX
  5
1F6
  8
LAYER_1
 10
88.86481603854024
 20
169.4965882286206
 30
0.0
  0
VERTEX
  5
1F7
  8
LAYER_1
 10
88.32335010231924
 20
169.253739916888
 30
0.0
  0
VERTEX
  5
1F8
  8
LAYER_1
 10
87.79792483799454
 20
169.0340200157966
 30
0.0
  0
VERTEX
  5
1F9
  8
LAYER_1
 10
87.28854024556617
 20
168.8374285253464
 30
0.0
  0
VERTEX
  5
1FA
  8
LAYER_1
 10
87.28854024556617
 20
172.9915895076111
 30
0.0
  0
VERTEX
  5
1FB
  8
LAYER_1
 10
87.73562734481581
 20
173.2062733838048
 30
0.0
  0
VERTEX
  5
1FC
  8
LAYER_1
 10
88.17562670532058
 20
173.4265528432182
 30
0.0
  0
VERTEX
  5
1FD
  8
LAYER_1
 10
88.60853832708048
 20
173.6524278858512
 30
0.0
  0
VERTEX
  5
1FE
  8
LAYER_1
 10
89.03436221009548
 20
173.8838985117038
 30
0.0
  0
VERTEX
  5
1FF
  8
LAYER_1
 10
89.45309835436561
 20
174.1209647207761
 30
0.0
  0
VERTEX
  5
200
  8
LAYER_1
 10
89.86474675989085
 20
174.3636265130681
 30
0.0
  0
VERTEX
  5
201
  8
LAYER_1
 10
90.26930742667119
 20
174.6118838885797
 30
0.0
  0
VERTEX
  5
202
  8
LAYER_1
 10
90.66678035470667
 20
174.8657368473109
 30
0.0
  0
VERTEX
  5
203
  8
LAYER_1
 10
91.05716554399726
 20
175.1251853892618
 30
0.0
  0
VERTEX
  5
204
  8
LAYER_1
 10
91.44046299454295
 20
175.3902295144323
 30
0.0
  0
VERTEX
  5
205
  8
LAYER_1
 10
91.81667270634377
 20
175.6608692228225
 30
0.0
  0
VERTEX
  5
206
  8
LAYER_1
 10
92.1857946793997
 20
175.9371045144323
 30
0.0
  0
VERTEX
  5
207
  8
LAYER_1
 10
92.54782891371075
 20
176.2189353892618
 30
0.0
  0
VERTEX
  5
208
  8
LAYER_1
 10
92.90277540927693
 20
176.5063618473109
 30
0.0
  0
VERTEX
  5
209
  8
LAYER_1
 10
93.25063416609821
 20
176.7993838885797
 30
0.0
  0
VERTEX
  5
20A
  8
LAYER_1
 10
93.59140518417462
 20
177.0980015130681
 30
0.0
  0
VERTEX
  5
20B
  8
LAYER_1
 10
93.92247719133697
 20
177.3988573708444
 30
0.0
  0
VERTEX
  5
20C
  8
LAYER_1
 10
94.2412389154161
 20
177.6985941119767
 30
0.0
  0
VERTEX
  5
20D
  8
LAYER_1
 10
94.547690356412
 20
177.9972117364651
 30
0.0
  0
VERTEX
  5
20E
  8
LAYER_1
 10
94.8418315143247
 20
178.2947102443096
 30
0.0
  0
VERTEX
  5
20F
  8
LAYER_1
 10
95.12366238915416
 20
178.5910896355101
 30
0.0
  0
VERTEX
  5
210
  8
LAYER_1
 10
95.39318298090042
 20
178.8863499100667
 30
0.0
  0
VERTEX
  5
211
  8
LAYER_1
 10
95.65039328956344
 20
179.1804910679794
 30
0.0
  0
VERTEX
  5
212
  8
LAYER_1
 10
95.89529331514325
 20
179.4735131092482
 30
0.0
  0
VERTEX
  5
213
  8
LAYER_1
 10
96.12788305763983
 20
179.765416033873
 30
0.0
  0
VERTEX
  5
214
  8
LAYER_1
 10
96.34816251705321
 20
180.0561998418539
 30
0.0
  0
VERTEX
  5
215
  8
LAYER_1
 10
96.55613169338335
 20
180.3458645331908
 30
0.0
  0
VERTEX
  5
216
  8
LAYER_1
 10
96.75179058663028
 20
180.6344101078839
 30
0.0
  0
VERTEX
  5
217
  8
LAYER_1
 10
96.93513919679398
 20
180.921836565933
 30
0.0
  0
VERTEX
  5
218
  8
LAYER_1
 10
97.10617752387448
 20
181.2081439073382
 30
0.0
  0
VERTEX
  5
219
  8
LAYER_1
 10
97.26490556787174
 20
181.4933321320995
 30
0.0
  0
VERTEX
  5
21A
  8
LAYER_1
 10
97.4113233287858
 20
181.7774012402168
 30
0.0
  0
VERTEX
  5
21B
  8
LAYER_1
 10
100.1807639836289
 20
181.7774012402168
 30
0.0
  0
SEQEND
  5
E99
  8
LAYER_1
  0
POLYLINE
  5
74
  8
LAYER_1
 66
     1
 10
0.0
 20
0.0
 30
0.0
 70
     1
  0
VERTEX
  5
21C
  8
LAYER_1
 10
173.2620012445626
 20
82.02103075250048
 30
0.0
  0
VERTEX
  5
21D
  8
LAYER_1
 10
173.2620012445626
 20
77.89074425863963
 30
0.0
  0
VERTEX
  5
21E
  8
LAYER_1
 10
150.1276219812611
 20
77.89074425863963
 30
0.0
  0
VERTEX
  5
21F
  8
LAYER_1
 10
150.1250107090919
 20
78.27683950079515
 30
0.0
  0
VERTEX
  5
220
  8
LAYER_1
 10
150.1410513809882
 20
78.65920435413759
 30
0.0
  0
VERTEX
  5
221
  8
LAYER_1
 10
150.17574399695
 20
79.03783881866693
 30
0.0
  0
VERTEX
  5
222
  8
LAYER_1
 10
150.2290885569773
 20
79.41274289438314
 30
0.0
  0
VERTEX
  5
223
  8
LAYER_1
 10
150.3010850610701
 20
79.78391658128629
 30
0.0
  0
VERTEX
  5
224
  8
LAYER_1
 10
150.3917335092283
 20
80.15135987937633
 30
0.0
  0
VERTEX
  5
225
  8
LAYER_1
 10
150.5010339014521
 20
80.51507278865327
 30
0.0
  0
VERTEX
  5
226
  8
LAYER_1
 10
150.6289862377413
 20
80.87505530911712
 30
0.0
  0
VERTEX
  5
227
  8
LAYER_1
 10
150.7435558041635
 20
81.1702223239534
 30
0.0
  0
VERTEX
  5
228
  8
LAYER_1
 10
150.8664254856949
 20
81.46482978046772
 30
0.0
  0
VERTEX
  5
229
  8
LAYER_1
 10
150.9975952823355
 20
81.75887767866008
 30
0.0
  0
VERTEX
  5
22A
  8
LAYER_1
 10
151.1370651940851
 20
82.05236601853049
 30
0.0
  0
VERTEX
  5
22B
  8
LAYER_1
 10
151.2848352209439
 20
82.34529480007893
 30
0.0
  0
VERTEX
  5
22C
  8
LAYER_1
 10
151.4409053629118
 20
82.63766402330539
 30
0.0
  0
VERTEX
  5
22D
  8
LAYER_1
 10
151.7779459921751
 20
83.22072379479242
 30
0.0
  0
VERTEX
  5
22E
  8
LAYER_1
 10
152.148187081875
 20
83.8015453329916
 30
0.0
  0
VERTEX
  5
22F
  8
LAYER_1
 10
152.5516286320114
 20
84.38012863790293
 30
0.0
  0
VERTEX
  5
230
  8
LAYER_1
 10
152.9882706425844
 20
84.95647370952639
 30
0.0
  0
VERTEX
  5
231
  8
LAYER_1
 10
153.458113113594
 20
85.530580547862
 30
0.0
  0
VERTEX
  5
232
  8
LAYER_1
 10
153.9716011337168
 20
86.11475943599297
 30
0.0
  0
VERTEX
  5
233
  8
LAYER_1
 10
154.5391797916295
 20
86.72132065700251
 30
0.0
  0
VERTEX
  5
234
  8
LAYER_1
 10
155.160849087332
 20
87.35026421089066
 30
0.0
  0
VERTEX
  5
235
  8
LAYER_1
 10
155.8366090208245
 20
88.00159009765736
 30
0.0
  0
VERTEX
  5
236
  8
LAYER_1
 10
156.5664595921069
 20
88.67529831730266
 30
0.0
  0
VERTEX
  5
237
  8
LAYER_1
 10
157.3504008011793
 20
89.37138886982653
 30
0.0
  0
VERTEX
  5
238
  8
LAYER_1
 10
158.1884326480414
 20
90.08986175522898
 30
0.0
  0
VERTEX
  5
239
  8
LAYER_1
 10
159.0805551326936
 20
90.83071697351002
 30
0.0
  0
VERTEX
  5
23A
  8
LAYER_1
 10
160.4492347882188
 20
91.97016423647045
 30
0.0
  0
VERTEX
  5
23B
  8
LAYER_1
 10
161.702272390538
 20
93.0488061617774
 30
0.0
  0
VERTEX
  5
23C
  8
LAYER_1
 10
162.2854254217454
 20
93.56532512281083
 30
0.0
  0
VERTEX
  5
23D
  8
LAYER_1
 10
162.8396679396513
 20
94.0666427494309
 30
0.0
  0
VERTEX
  5
23E
  8
LAYER_1
 10
163.3649999442557
 20
94.55275904163757
 30
0.0
  0
VERTEX
  5
23F
  8
LAYER_1
 10
163.8614214355585
 20
95.02367399943088
 30
0.0
  0
VERTEX
  5
240
  8
LAYER_1
 10
164.3289324135599
 20
95.47938762281082
 30
0.0
  0
VERTEX
  5
241
  8
LAYER_1
 10
164.7675328782597
 20
95.9198999117774
 30
0.0
  0
VERTEX
  5
242
  8
LAYER_1
 10
165.1772228296581
 20
96.3452108663306
 30
0.0
  0
VERTEX
  5
243
  8
LAYER_1
 10
165.5580022677549
 20
96.75532048647045
 30
0.0
  0
VERTEX
  5
244
  8
LAYER_1
 10
165.9098711925503
 20
97.15022877219693
 30
0.0
  0
VERTEX
  5
245
  8
LAYER_1
 10
166.2328296040442
 20
97.52993572351002
 30
0.0
  0
VERTEX
  5
246
  8
LAYER_1
 10
166.5268775022366
 20
97.89444134040974
 30
0.0
  0
VERTEX
  5
247
  8
LAYER_1
 10
166.7920148871274
 20
98.24374562289611
 30
0.0
  0
VERTEX
  5
248
  8
LAYER_1
 10
167.03486319886
 20
98.5842834916717
 30
0.0
  0
VERTEX
  5
249
  8
LAYER_1
 10
167.2620438775776
 20
98.9224898674391
 30
0.0
  0
VERTEX
  5
24A
  8
LAYER_1
 10
167.4735569232802
 20
99.2583647501983
 30
0.0
  0
VERTEX
  5
24B
  8
LAYER_1
 10
167.6694023359678
 20
99.59190813994933
 30
0.0
  0
VERTEX
  5
24C
  8
LAYER_1
 10
167.8495801156404
 20
99.92312003669217
 30
0.0
  0
VERTEX
  5
24D
  8
LAYER_1
 10
168.0140902622979
 20
100.2520004404268
 30
0.0
  0
VERTEX
  5
24E
  8
LAYER_1
 10
168.1629327759405
 20
100.5785493511533
 30
0.0
  0
VERTEX
  5
24F
  8
LAYER_1
 10
168.2961076565681
 20
100.9027667688716
 30
0.0
  0
VERTEX
  5
250
  8
LAYER_1
 10
168.4136149041806
 20
101.2246526935816
 30
0.0
  0
VERTEX
  5
251
  8
LAYER_1
 10
168.5154545187782
 20
101.5442071252836
 30
0.0
  0
VERTEX
  5
252
  8
LAYER_1
 10
168.6016265003607
 20
101.8614300639773
 30
0.0
  0
VERTEX
  5
253
  8
LAYER_1
 10
168.6721308489282
 20
102.1763215096628
 30
0.0
  0
VERTEX
  5
254
  8
LAYER_1
 10
168.7269675644807
 20
102.4888814623402
 30
0.0
  0
VERTEX
  5
255
  8
LAYER_1
 10
168.7661366470182
 20
102.7991099220094
 30
0.0
  0
VERTEX
  5
256
  8
LAYER_1
 10
168.7896380965408
 20
103.1070068886703
 30
0.0
  0
VERTEX
  5
257
  8
LAYER_1
 10
168.7974719130483
 20
103.4125723623231
 30
0.0
  0
VERTEX
  5
258
  8
LAYER_1
 10
168.7903375444432
 20
103.7287694440932
 30
0.0
  0
VERTEX
  5
259
  8
LAYER_1
 10
168.7689344386281
 20
104.0387181246014
 30
0.0
  0
VERTEX
  5
25A
  8
LAYER_1
 10
168.7332625956028
 20
104.3424184038477
 30
0.0
  0
VERTEX
  5
25B
  8
LAYER_1
 10
168.6833220153675
 20
104.639870281832
 30
0.0
  0
VERTEX
  5
25C
  8
LAYER_1
 10
168.6191126979221
 20
104.9310737585544
 30
0.0
  0
VERTEX
  5
25D
  8
LAYER_1
 10
168.5406346432665
 20
105.2160288340148
 30
0.0
  0
VERTEX
  5
25E
  8
LAYER_1
 10
168.4478878514009
 20
105.4947355082133
 30
0.0
  0
VERTEX
  5
25F
  8
LAYER_1
 10
168.3408723223252
 20
105.7671937811499
 30
0.0
  0
VERTEX
  5
260
  8
LAYER_1
 10
168.2195880560394
 20
106.0334036528245
 30
0.0
  0
VERTEX
  5
261
  8
LAYER_1
 10
168.0840350525435
 20
106.2933651232372
 30
0.0
  0
VERTEX
  5
262
  8
LAYER_1
 10
167.9342133118375
 20
106.5470781923879
 30
0.0
  0
VERTEX
  5
263
  8
LAYER_1
 10
167.7701228339214
 20
106.7945428602767
 30
0.0
  0
VERTEX
  5
264
  8
LAYER_1
 10
167.5917636187952
 20
107.0357591269036
 30
0.0
  0
VERTEX
  5
265
  8
LAYER_1
 10
167.3991356664589
 20
107.2707269922685
 30
0.0
  0
VERTEX
  5
266
  8
LAYER_1
 10
167.1922389769125
 20
107.4994464563715
 30
0.0
  0
VERTEX
  5
267
  8
LAYER_1
 10
166.9710735501561
 20
107.7219175192126
 30
0.0
  0
VERTEX
  5
268
  8
LAYER_1
 10
166.7384371777993
 20
107.9344097919787
 30
0.0
  0
VERTEX
  5
269
  8
LAYER_1
 10
166.4971276514521
 20
108.1331928858565
 30
0.0
  0
VERTEX
  5
26A
  8
LAYER_1
 10
166.2471449711144
 20
108.3182668008463
 30
0.0
  0
VERTEX
  5
26B
  8
LAYER_1
 10
165.9884891367863
 20
108.4896315369479
 30
0.0
  0
VERTEX
  5
26C
  8
LAYER_1
 10
165.7211601484678
 20
108.6472870941615
 30
0.0
  0
VERTEX
  5
26D
  8
LAYER_1
 10
165.4451580061587
 20
108.7912334724868
 30
0.0
  0
VERTEX
  5
26E
  8
LAYER_1
 10
165.1604827098593
 20
108.9214706719241
 30
0.0
  0
VERTEX
  5
26F
  8
LAYER_1
 10
164.8671342595694
 20
109.0379986924732
 30
0.0
  0
VERTEX
  5
270
  8
LAYER_1
 10
164.5651126552891
 20
109.1408175341342
 30
0.0
  0
VERTEX
  5
271
  8
LAYER_1
 10
164.2544178970182
 20
109.229927196907
 30
0.0
  0
VERTEX
  5
272
  8
LAYER_1
 10
163.935049984757
 20
109.3053276807918
 30
0.0
  0
VERTEX
  5
273
  8
LAYER_1
 10
163.6070089185053
 20
109.3670189857883
 30
0.0
  0
VERTEX
  5
274
  8
LAYER_1
 10
163.2702946982631
 20
109.4150011118968
 30
0.0
  0
VERTEX
  5
275
  8
LAYER_1
 10
162.9249073240305
 20
109.4492740591171
 30
0.0
  0
VERTEX
  5
276
  8
LAYER_1
 10
162.5708467958075
 20
109.4698378274493
 30
0.0
  0
VERTEX
  5
277
  8
LAYER_1
 10
162.208113113594
 20
109.4766924168934
 30
0.0
  0
VERTEX
  5
278
  8
LAYER_1
 10
161.8250021824889
 20
109.4694181587078
 30
0.0
  0
VERTEX
  5
279
  8
LAYER_1
 10
161.4515902622979
 20
109.4475953841512
 30
0.0
  0
VERTEX
  5
27A
  8
LAYER_1
 10
161.0878773530209
 20
109.4112240932235
 30
0.0
  0
VERTEX
  5
27B
  8
LAYER_1
 10
160.7338634546581
 20
109.3603042859248
 30
0.0
  0
VERTEX
  5
27C
  8
LAYER_1
 10
160.3895485672092
 20
109.2948359622549
 30
0.0
  0
VERTEX
  5
27D
  8
LAYER_1
 10
160.0549326906744
 20
109.214819122214
 30
0.0
  0
VERTEX
  5
27E
  8
LAYER_1
 10
159.7300158250537
 20
109.120253765802
 30
0.0
  0
VERTEX
  5
27F
  8
LAYER_1
 10
159.414797970347
 20
109.0111398930189
 30
0.0
  0
VERTEX
  5
280
  8
LAYER_1
 10
159.1092791265544
 20
108.8874775038647
 30
0.0
  0
VERTEX
  5
281
  8
LAYER_1
 10
158.8134592936758
 20
108.7492665983395
 30
0.0
  0
VERTEX
  5
282
  8
LAYER_1
 10
158.5273384717113
 20
108.5965071764432
 30
0.0
  0
VERTEX
  5
283
  8
LAYER_1
 10
158.2509166606608
 20
108.4291992381758
 30
0.0
  0
VERTEX
  5
284
  8
LAYER_1
 10
157.9841938605244
 20
108.2473427835373
 30
0.0
  0
VERTEX
  5
285
  8
LAYER_1
 10
157.727170071302
 20
108.0509378125278
 30
0.0
  0
VERTEX
  5
286
  8
LAYER_1
 10
157.4798452929937
 20
107.8399843251471
 30
0.0
  0
VERTEX
  5
287
  8
LAYER_1
 10
157.2422195255994
 20
107.6144823213954
 30
0.0
  0
VERTEX
  5
288
  8
LAYER_1
 10
157.0166242621274
 20
107.3761104762386
 30
0.0
  0
VERTEX
  5
289
  8
LAYER_1
 10
156.8053909955858
 20
107.1265474646424
 30
0.0
  0
VERTEX
  5
28A
  8
LAYER_1
 10
156.6085197259746
 20
106.8657932866069
 30
0.0
  0
VERTEX
  5
28B
  8
LAYER_1
 10
156.4260104532938
 20
106.5938479421321
 30
0.0
  0
VERTEX
  5
28C
  8
LAYER_1
 10
156.2578631775435
 20
106.3107114312181
 30
0.0
  0
VERTEX
  5
28D
  8
LAYER_1
 10
156.1040778987236
 20
106.0163837538647
 30
0.0
  0
VERTEX
  5
28E
  8
LAYER_1
 10
155.9646546168341
 20
105.7108649100721
 30
0.0
  0
VERTEX
  5
28F
  8
LAYER_1
 10
155.839593331875
 20
105.3941548998402
 30
0.0
  0
VERTEX
  5
290
  8
LAYER_1
 10
155.7288940438463
 20
105.066253723169
 30
0.0
  0
VERTEX
  5
291
  8
LAYER_1
 10
155.6325567527481
 20
104.7271613800585
 30
0.0
  0
VERTEX
  5
292
  8
LAYER_1
 10
155.5505814585803
 20
104.3768778705087
 30
0.0
  0
VERTEX
  5
293
  8
LAYER_1
 10
155.4829681613429
 20
104.0154031945196
 30
0.0
  0
VERTEX
  5
294
  8
LAYER_1
 10
155.429716861036
 20
103.6427373520912
 30
0.0
  0
VERTEX
  5
295
  8
LAYER_1
 10
155.3908275576595
 20
103.2588803432235
 30
0.0
  0
VERTEX
  5
296
  8
LAYER_1
 10
155.3663002512133
 20
102.8638321679166
 30
0.0
  0
VERTEX
  5
297
  8
LAYER_1
 10
155.3561349416977
 20
102.4575928261703
 30
0.0
  0
VERTEX
  5
298
  8
LAYER_1
 10
150.939354586991
 20
102.9112081058429
 30
0.0
  0
VERTEX
  5
299
  8
LAYER_1
 10
151.0058487675844
 20
103.5197744108395
 30
0.0
  0
VERTEX
  5
29A
  8
LAYER_1
 10
151.0919274894466
 20
104.1099685509316
 30
0.0
  0
VERTEX
  5
29B
  8
LAYER_1
 10
151.1975907525776
 20
104.6817905261192
 30
0.0
  0
VERTEX
  5
29C
  8
LAYER_1
 10
151.3228385569773
 20
105.2352403364022
 30
0.0
  0
VERTEX
  5
29D
  8
LAYER_1
 10
151.4676709026458
 20
105.7703179817808
 30
0.0
  0
VERTEX
  5
29E
  8
LAYER_1
 10
151.6320877895831
 20
106.2870234622549
 30
0.0
  0
VERTEX
  5
29F
  8
LAYER_1
 10
151.8160892177891
 20
106.7853567778245
 30
0.0
  0
VERTEX
  5
2A0
  8
LAYER_1
 10
152.0196751872638
 20
107.2653179284896
 30
0.0
  0
VERTEX
  5
2A1
  8
LAYER_1
 10
152.2428456980074
 20
107.7269069142501
 30
0.0
  0
VERTEX
  5
2A2
  8
LAYER_1
 10
152.4856007500196
 20
108.1701237351062
 30
0.0
  0
VERTEX
  5
2A3
  8
LAYER_1
 10
152.7479403433007
 20
108.5949683910578
 30
0.0
  0
VERTEX
  5
2A4
  8
LAYER_1
 10
153.0298644778505
 20
109.0014408821048
 30
0.0
  0
VERTEX
  5
2A5
  8
LAYER_1
 10
153.331373153669
 20
109.3895412082474
 30
0.0
  0
VERTEX
  5
2A6
  8
LAYER_1
 10
153.6524663707563
 20
109.7592693694855
 30
0.0
  0
VERTEX
  5
2A7
  8
LAYER_1
 10
153.9931441291124
 20
110.110625365819
 30
0.0
  0
VERTEX
  5
2A8
  8
LAYER_1
 10
154.3534064287372
 20
110.4436091972481
 30
0.0
  0
VERTEX
  5
2A9
  8
LAYER_1
 10
154.7313880752243
 20
110.7572882665694
 30
0.0
  0
VERTEX
  5
2AA
  8
LAYER_1
 10
155.125223874167
 20
111.0507299765796
 30
0.0
  0
VERTEX
  5
2AB
  8
LAYER_1
 10
155.5349138255653
 20
111.3239343272788
 30
0.0
  0
VERTEX
  5
2AC
  8
LAYER_1
 10
155.9604579294194
 20
111.5769013186669
 30
0.0
  0
VERTEX
  5
2AD
  8
LAYER_1
 10
156.4018561857291
 20
111.809630950744
 30
0.0
  0
VERTEX
  5
2AE
  8
LAYER_1
 10
156.8591085944944
 20
112.02212322351
 30
0.0
  0
VERTEX
  5
2AF
  8
LAYER_1
 10
157.3322151557154
 20
112.214378136965
 30
0.0
  0
VERTEX
  5
2B0
  8
LAYER_1
 10
157.8211758693921
 20
112.3863956911089
 30
0.0
  0
VERTEX
  5
2B1
  8
LAYER_1
 10
158.3259907355244
 20
112.5381758859418
 30
0.0
  0
VERTEX
  5
2B2
  8
LAYER_1
 10
158.8466597541124
 20
112.6697187214637
 30
0.0
  0
VERTEX
  5
2B3
  8
LAYER_1
 10
159.3831829251561
 20
112.7810241976744
 30
0.0
  0
VERTEX
  5
2B4
  8
LAYER_1
 10
159.9355602486554
 20
112.8720923145742
 30
0.0
  0
VERTEX
  5
2B5
  8
LAYER_1
 10
160.5037917246104
 20
112.9429230721628
 30
0.0
  0
VERTEX
  5
2B6
  8
LAYER_1
 10
161.087877353021
 20
112.9935164704405
 30
0.0
  0
VERTEX
  5
2B7
  8
LAYER_1
 10
161.6878171338873
 20
113.023872509407
 30
0.0
  0
VERTEX
  5
2B8
  8
LAYER_1
 10
162.3036110672093
 20
113.0339911890626
 30
0.0
  0
VERTEX
  5
2B9
  8
LAYER_1
 10
162.9250938434712
 20
113.0230798017843
 30
0.0
  0
VERTEX
  5
2BA
  8
LAYER_1
 10
163.5301629089555
 20
112.9903456399493
 30
0.0
  0
VERTEX
  5
2BB
  8
LAYER_1
 10
164.1188182636622
 20
112.9357887035578
 30
0.0
  0
VERTEX
  5
2BC
  8
LAYER_1
 10
164.6910599075912
 20
112.8594089926096
 30
0.0
  0
VERTEX
  5
2BD
  8
LAYER_1
 10
165.2468878407427
 20
112.7612065071048
 30
0.0
  0
VERTEX
  5
2BE
  8
LAYER_1
 10
165.7863020631165
 20
112.6411812470434
 30
0.0
  0
VERTEX
  5
2BF
  8
LAYER_1
 10
166.3093025747127
 20
112.4993332124255
 30
0.0
  0
VERTEX
  5
2C0
  8
LAYER_1
 10
166.8158893755312
 20
112.3356624032508
 30
0.0
  0
VERTEX
  5
2C1
  8
LAYER_1
 10
167.3060624655722
 20
112.1501688195196
 30
0.0
  0
VERTEX
  5
2C2
  8
LAYER_1
 10
167.7798218448355
 20
111.9428524612317
 30
0.0
  0
VERTEX
  5
2C3
  8
LAYER_1
 10
168.2371675133211
 20
111.7137133283872
 30
0.0
  0
VERTEX
  5
2C4
  8
LAYER_1
 10
168.6780994710292
 20
111.4627514209861
 30
0.0
  0
VERTEX
  5
2C5
  8
LAYER_1
 10
169.1026177179596
 20
111.1899667390284
 30
0.0
  0
VERTEX
  5
2C6
  8
LAYER_1
 10
169.5107222541124
 20
110.8953592825141
 30
0.0
  0
VERTEX
  5
2C7
  8
LAYER_1
 10
169.9024130794876
 20
110.5789290514432
 30
0.0
  0
VERTEX
  5
2C8
  8
LAYER_1
 10
170.2776901940851
 20
110.2406760458156
 30
0.0
  0
VERTEX
  5
2C9
  8
LAYER_1
 10
170.6332895076936
 20
109.8862891085714
 30
0.0
  0
VERTEX
  5
2CA
  8
LAYER_1
 10
170.9659469301015
 20
109.5214570826505
 30
0.0
  0
VERTEX
  5
2CB
  8
LAYER_1
 10
171.2756624613089
 20
109.146179968053
 30
0.0
  0
VERTEX
  5
2CC
  8
LAYER_1
 10
171.5624361013157
 20
108.7604577647788
 30
0.0
  0
VERTEX
  5
2CD
  8
LAYER_1
 10
171.826267850122
 20
108.3642904728279
 30
0.0
  0
VERTEX
  5
2CE
  8
LAYER_1
 10
172.0671577077277
 20
107.9576780922003
 30
0.0
  0
VERTEX
  5
2CF
  8
LAYER_1
 10
172.2851056741329
 20
107.5406206228961
 30
0.0
  0
VERTEX
  5
2D0
  8
LAYER_1
 10
172.4801117493375
 20
107.1131180649152
 30
0.0
  0
VERTEX
  5
2D1
  8
LAYER_1
 10
172.6521759333416
 20
106.6751704182576
 30
0.0
  0
VERTEX
  5
2D2
  8
LAYER_1
 10
172.8012982261451
 20
106.2267776829234
 30
0.0
  0
VERTEX
  5
2D3
  8
LAYER_1
 10
172.9274786277481
 20
105.7679398589125
 30
0.0
  0
VERTEX
  5
2D4
  8
LAYER_1
 10
173.0307171381506
 20
105.2986569462249
 30
0.0
  0
VERTEX
  5
2D5
  8
LAYER_1
 10
173.1110137573525
 20
104.8189289448606
 30
0.0
  0
VERTEX
  5
2D6
  8
LAYER_1
 10
173.1683684853539
 20
104.3287558548197
 30
0.0
  0
VERTEX
  5
2D7
  8
LAYER_1
 10
173.2027813221547
 20
103.8281376761021
 30
0.0
  0
VERTEX
  5
2D8
  8
LAYER_1
 10
173.214252267755
 20
103.3170744087078
 30
0.0
  0
VERTEX
  5
2D9
  8
LAYER_1
 10
173.2008228680278
 20
102.7929547804677
 30
0.0
  0
VERTEX
  5
2DA
  8
LAYER_1
 10
173.1605346688464
 20
102.2710733855155
 30
0.0
  0
VERTEX
  5
2DB
  8
LAYER_1
 10
173.0933876702106
 20
101.7514302238511
 30
0.0
  0
VERTEX
  5
2DC
  8
LAYER_1
 10
172.9993818721206
 20
101.2340252954746
 30
0.0
  0
VERTEX
  5
2DD
  8
LAYER_1
 10
172.8785172745762
 20
100.7188586003859
 30
0.0
  0
VERTEX
  5
2DE
  8
LAYER_1
 10
172.7307938775776
 20
100.2059301385851
 30
0.0
  0
VERTEX
  5
2DF
  8
LAYER_1
 10
172.5562116811247
 20
99.6952399100721
 30
0.0
  0
VERTEX
  5
2E0
  8
LAYER_1
 10
172.3547706852174
 20
99.186787914847
 30
0.0
  0
VERTEX
  5
2E1
  8
LAYER_1
 10
172.1221809427208
 20
98.67609768633403
 30
0.0
  0
VERTEX
  5
2E2
  8
LAYER_1
 10
171.8541525064998
 20
98.15869275795751
 30
0.0
  0
VERTEX
  5
2E3
  8
LAYER_1
 10
171.5506853765544
 20
97.63457312971738
 30
0.0
  0
VERTEX
  5
2E4
  8
LAYER_1
 10
171.2117795528846
 20
97.1037388016137
 30
0.0
  0
VERTEX
  5
2E5
  8
LAYER_1
 10
170.8374350354903
 20
96.56618977364644
 30
0.0
  0
VERTEX
  5
2E6
  8
LAYER_1
 10
170.4276518243716
 20
96.02192604581563
 30
0.0
  0
VERTEX
  5
2E7
  8
LAYER_1
 10
169.9824299195285
 20
95.47094761812122
 30
0.0
  0
VERTEX
  5
2E8
  8
LAYER_1
 10
169.501769320961
 20
94.91325449056323
 30
0.0
  0
VERTEX
  5
2E9
  8
LAYER_1
 10
168.9621685791465
 20
94.32609129138177
 30
0.0
  0
VERTEX
  5
2EA
  8
LAYER_1
 10
168.3401262445626
 20
93.68670264881698
 30
0.0
  0
VERTEX
  5
2EB
  8
LAYER_1
 10
167.6356423172092
 20
92.99508856286882
 30
0.0
  0
VERTEX
  5
2EC
  8
LAYER_1
 10
166.8487167970865
 20
92.2512490335373
 30
0.0
  0
VERTEX
  5
2ED
  8
LAYER_1
 10
165.9793496841942
 20
91.45518406082243
 30
0.0
  0
VERTEX
  5
2EE
  8
LAYER_1
 10
165.0275409785326
 20
90.60689364472421
 30
0.0
  0
VERTEX
  5
2EF
  8
LAYER_1
 10
163.9932906801015
 20
89.70637778524261
 30
0.0
  0
VERTEX
  5
2F0
  8
LAYER_1
 10
162.8765987889009
 20
88.75363648237769
 30
0.0
  0
VERTEX
  5
2F1
  8
LAYER_1
 10
161.1158552691192
 20
87.26073487937633
 30
0.0
  0
VERTEX
  5
2F2
  8
LAYER_1
 10
160.3653010399241
 20
86.61220678421944
 30
0.0
  0
VERTEX
  5
2F3
  8
LAYER_1
 10
159.7012918311929
 20
86.02896049329175
 30
0.0
  0
VERTEX
  5
2F4
  8
LAYER_1
 10
159.1238276429254
 20
85.51099600659325
 30
0.0
  0
VERTEX
  5
2F5
  8
LAYER_1
 10
158.6329084751219
 20
85.05831332412394
 30
0.0
  0
VERTEX
  5
2F6
  8
LAYER_1
 10
158.2285343277822
 20
84.67091244588383
 30
0.0
  0
VERTEX
  5
2F7
  8
LAYER_1
 10
157.9107052009064
 20
84.34879337187292
 30
0.0
  0
VERTEX
  5
2F8
  8
LAYER_1
 10
157.6421172063634
 20
84.05912868053593
 30
0.0
  0
VERTEX
  5
2F9
  8
LAYER_1
 10
157.3854664560224
 20
83.76909095031766
 30
0.0
  0
VERTEX
  5
2FA
  8
LAYER_1
 10
157.1407529498832
 20
83.47868018121808
 30
0.0
  0
VERTEX
  5
2FB
  8
LAYER_1
 10
156.907976687946
 20
83.18789637323718
 30
0.0
  0
VERTEX
  5
2FC
  8
LAYER_1
 10
156.6871376702106
 20
82.89673952637497
 30
0.0
  0
VERTEX
  5
2FD
  8
LAYER_1
 10
156.4782358966772
 20
82.60520964063144
 30
0.0
  0
VERTEX
  5
2FE
  8
LAYER_1
 10
156.2812713673457
 20
82.31330671600662
 30
0.0
  0
VERTEX
  5
2FF
  8
LAYER_1
 10
156.0962440822161
 20
82.02103075250048
 30
0.0
  0
SEQEND
  5
E9A
  8
LAYER_1
  0
POLYLINE
  5
75
  8
LAYER_1
 66
     1
 10
0.0
 20
0.0
 30
0.0
 70
     1
  0
VERTEX
  5
300
  8
LAYER_1
 10
178.2298772169167
 20
-8.021828103683493
 30
0.0
  0
VERTEX
  5
301
  8
LAYER_1
 10
182.5272851296043
 20
-7.448840381991815
 30
0.0
  0
VERTEX
  5
302
  8
LAYER_1
 10
182.6238555700034
 20
-7.897466266626877
 30
0.0
  0
VERTEX
  5
303
  8
LAYER_1
 10
182.7285396060709
 20
-8.330144739085949
 30
0.0
  0
VERTEX
  5
304
  8
LAYER_1
 10
182.841337237807
 20
-8.746875799369032
 30
0.0
  0
VERTEX
  5
305
  8
LAYER_1
 10
182.9622484652114
 20
-9.147659447476125
 30
0.0
  0
VERTEX
  5
306
  8
LAYER_1
 10
183.0912732882844
 20
-9.53249568340723
 30
0.0
  0
VERTEX
  5
307
  8
LAYER_1
 10
183.2284117070259
 20
-9.901384507162346
 30
0.0
  0
VERTEX
  5
308
  8
LAYER_1
 10
183.3736637214359
 20
-10.25432591874147
 30
0.0
  0
VERTEX
  5
309
  8
LAYER_1
 10
183.5270293315143
 20
-10.59131991814461
 30
0.0
  0
VERTEX
  5
30A
  8
LAYER_1
 10
183.6885085372612
 20
-10.91236650537176
 30
0.0
  0
VERTEX
  5
30B
  8
LAYER_1
 10
183.8581013386766
 20
-11.21746568042292
 30
0.0
  0
VERTEX
  5
30C
  8
LAYER_1
 10
184.0358077357606
 20
-11.50661744329809
 30
0.0
  0
VERTEX
  5
30D
  8
LAYER_1
 10
184.2216277285129
 20
-11.77982179399727
 30
0.0
  0
VERTEX
  5
30E
  8
LAYER_1
 10
184.4155613169338
 20
-12.03707873252047
 30
0.0
  0
VERTEX
  5
30F
  8
LAYER_1
 10
184.6176085010231
 20
-12.27838825886767
 30
0.0
  0
VERTEX
  5
310
  8
LAYER_1
 10
184.827769280781
 20
-12.50375037303888
 30
0.0
  0
VERTEX
  5
311
  8
LAYER_1
 10
185.0460436562073
 20
-12.71316507503411
 30
0.0
  0
VERTEX
  5
312
  8
LAYER_1
 10
185.2714057703785
 20
-12.90831103981924
 30
0.0
  0
VERTEX
  5
313
  8
LAYER_1
 10
185.502829766371
 20
-13.09086694236017
 30
0.0
  0
VERTEX
  5
314
  8
LAYER_1
 10
185.7403156441848
 20
-13.26083278265689
 30
0.0
  0
VERTEX
  5
315
  8
LAYER_1
 10
185.9838634038199
 20
-13.41820856070941
 30
0.0
  0
VERTEX
  5
316
  8
LAYER_1
 10
186.2334730452762
 20
-13.56299427651773
 30
0.0
  0
VERTEX
  5
317
  8
LAYER_1
 10
186.4891445685539
 20
-13.69518993008186
 30
0.0
  0
VERTEX
  5
318
  8
LAYER_1
 10
186.7508779736527
 20
-13.81479552140177
 30
0.0
  0
VERTEX
  5
319
  8
LAYER_1
 10
187.0186732605729
 20
-13.92181105047749
 30
0.0
  0
VERTEX
  5
31A
  8
LAYER_1
 10
187.2925304293144
 20
-14.016236517309
 30
0.0
  0
VERTEX
  5
31B
  8
LAYER_1
 10
187.5724494798772
 20
-14.09807192189632
 30
0.0
  0
VERTEX
  5
31C
  8
LAYER_1
 10
187.8584304122612
 20
-14.16731726423943
 30
0.0
  0
VERTEX
  5
31D
  8
LAYER_1
 10
188.1504732264665
 20
-14.22397254433834
 30
0.0
  0
VERTEX
  5
31E
  8
LAYER_1
 10
188.4485779224931
 20
-14.26803776219304
 30
0.0
  0
VERTEX
  5
31F
  8
LAYER_1
 10
188.752744500341
 20
-14.29951291780355
 30
0.0
  0
VERTEX
  5
320
  8
LAYER_1
 10
189.0629729600101
 20
-14.31839801116985
 30
0.0
  0
VERTEX
  5
321
  8
LAYER_1
 10
189.3792633015006
 20
-14.32469304229195
 30
0.0
  0
VERTEX
  5
322
  8
LAYER_1
 10
189.7545870459583
 20
-14.31648618690314
 30
0.0
  0
VERTEX
  5
323
  8
LAYER_1
 10
190.1225432725102
 20
-14.2918656207367
 30
0.0
  0
VERTEX
  5
324
  8
LAYER_1
 10
190.4831319811562
 20
-14.25083134379263
 30
0.0
  0
VERTEX
  5
325
  8
LAYER_1
 10
190.8363531718963
 20
-14.19338335607094
 30
0.0
  0
VERTEX
  5
326
  8
LAYER_1
 10
191.1822068447305
 20
-14.11952165757162
 30
0.0
  0
VERTEX
  5
327
  8
LAYER_1
 10
191.5206929996589
 20
-14.02924624829468
 30
0.0
  0
VERTEX
  5
328
  8
LAYER_1
 10
191.8518116366814
 20
-13.92255712824011
 30
0.0
  0
VERTEX
  5
329
  8
LAYER_1
 10
192.1755627557981
 20
-13.79945429740791
 30
0.0
  0
VERTEX
  5
32A
  8
LAYER_1
 10
192.4919463570088
 20
-13.65993775579809
 30
0.0
  0
VERTEX
  5
32B
  8
LAYER_1
 10
192.8009624403138
 20
-13.50400750341064
 30
0.0
  0
VERTEX
  5
32C
  8
LAYER_1
 10
193.1026110057128
 20
-13.33166354024557
 30
0.0
  0
VERTEX
  5
32D
  8
LAYER_1
 10
193.396892053206
 20
-13.14290586630287
 30
0.0
  0
VERTEX
  5
32E
  8
LAYER_1
 10
193.6838055827933
 20
-12.93773448158254
 30
0.0
  0
VERTEX
  5
32F
  8
LAYER_1
 10
193.9633515944747
 20
-12.71614938608458
 30
0.0
  0
VERTEX
  5
330
  8
LAYER_1
 10
194.2355300882503
 20
-12.478150579809
 30
0.0
  0
VERTEX
  5
331
  8
LAYER_1
 10
194.50034106412
 20
-12.2237380627558
 30
0.0
  0
VERTEX
  5
332
  8
LAYER_1
 10
194.7533080555082
 20
-11.95720178206003
 30
0.0
  0
VERTEX
  5
333
  8
LAYER_1
 10
194.989954595839
 20
-11.68283168485675
 30
0.0
  0
VERTEX
  5
334
  8
LAYER_1
 10
195.2102806851125
 20
-11.40062777114598
 30
0.0
  0
VERTEX
  5
335
  8
LAYER_1
 10
195.4142863233288
 20
-11.1105900409277
 30
0.0
  0
VERTEX
  5
336
  8
LAYER_1
 10
195.6019715104877
 20
-10.81271849420191
 30
0.0
  0
VERTEX
  5
337
  8
LAYER_1
 10
195.7733362465893
 20
-10.50701313096862
 30
0.0
  0
VERTEX
  5
338
  8
LAYER_1
 10
195.9283805316336
 20
-10.19347395122783
 30
0.0
  0
VERTEX
  5
339
  8
LAYER_1
 10
196.0671043656207
 20
-9.87210095497954
 30
0.0
  0
VERTEX
  5
33A
  8
LAYER_1
 10
196.1895077485505
 20
-9.54289414222374
 30
0.0
  0
VERTEX
  5
33B
  8
LAYER_1
 10
196.2955906804229
 20
-9.205853512960442
 30
0.0
  0
VERTEX
  5
33C
  8
LAYER_1
 10
196.385353161238
 20
-8.860979067189636
 30
0.0
  0
VERTEX
  5
33D
  8
LAYER_1
 10
196.4587951909959
 20
-8.508270804911326
 30
0.0
  0
VERTEX
  5
33E
  8
LAYER_1
 10
196.5159167696964
 20
-8.147728726125514
 30
0.0
  0
VERTEX
  5
33F
  8
LAYER_1
 10
196.5567178973397
 20
-7.779352830832201
 30
0.0
  0
VERTEX
  5
340
  8
LAYER_1
 10
196.5811985739256
 20
-7.403143119031382
 30
0.0
  0
VERTEX
  5
341
  8
LAYER_1
 10
196.5893587994543
 20
-7.01909959072306
 30
0.0
  0
VERTEX
  5
342
  8
LAYER_1
 10
196.5818047621078
 20
-6.653101818298095
 30
0.0
  0
VERTEX
  5
343
  8
LAYER_1
 10
196.5591426500682
 20
-6.295217641541614
 30
0.0
  0
VERTEX
  5
344
  8
LAYER_1
 10
196.5213724633356
 20
-5.945447060453619
 30
0.0
  0
VERTEX
  5
345
  8
LAYER_1
 10
196.4684942019099
 20
-5.603790075034111
 30
0.0
  0
VERTEX
  5
346
  8
LAYER_1
 10
196.4005078657912
 20
-5.270246685283087
 30
0.0
  0
VERTEX
  5
347
  8
LAYER_1
 10
196.3174134549795
 20
-4.944816891200549
 30
0.0
  0
VERTEX
  5
348
  8
LAYER_1
 10
196.2192109694747
 20
-4.627500692786498
 30
0.0
  0
VERTEX
  5
349
  8
LAYER_1
 10
196.1059004092769
 20
-4.318298090040932
 30
0.0
  0
VERTEX
  5
34A
  8
LAYER_1
 10
195.977481774386
 20
-4.017209082963851
 30
0.0
  0
VERTEX
  5
34B
  8
LAYER_1
 10
195.8339550648021
 20
-3.724233671555256
 30
0.0
  0
VERTEX
  5
34C
  8
LAYER_1
 10
195.6753202805252
 20
-3.439371855815147
 30
0.0
  0
VERTEX
  5
34D
  8
LAYER_1
 10
195.5015774215552
 20
-3.162623635743523
 30
0.0
  0
VERTEX
  5
34E
  8
LAYER_1
 10
195.3127264878922
 20
-2.893989011340385
 30
0.0
  0
VERTEX
  5
34F
  8
LAYER_1
 10
195.1087674795361
 20
-2.633467982605732
 30
0.0
  0
VERTEX
  5
350
  8
LAYER_1
 10
194.889700396487
 20
-2.381060549539566
 30
0.0
  0
VERTEX
  5
351
  8
LAYER_1
 10
194.6555252387448
 20
-2.136766712141885
 30
0.0
  0
VERTEX
  5
352
  8
LAYER_1
 10
194.4096926159618
 20
-1.904037080064804
 30
0.0
  0
VERTEX
  5
353
  8
LAYER_1
 10
194.1556531377899
 20
-1.686322262960439
 30
0.0
  0
VERTEX
  5
354
  8
LAYER_1
 10
193.8934068042292
 20
-1.483622260828788
 30
0.0
  0
VERTEX
  5
355
  8
LAYER_1
 10
193.6229536152797
 20
-1.295937073669852
 30
0.0
  0
VERTEX
  5
356
  8
LAYER_1
 10
193.3442935709413
 20
-1.123266701483631
 30
0.0
  0
VERTEX
  5
357
  8
LAYER_1
 10
193.0574266712142
 20
-0.9656111442701251
 30
0.0
  0
VERTEX
  5
358
  8
LAYER_1
 10
192.7623529160982
 20
-0.8229704020293338
 30
0.0
  0
VERTEX
  5
359
  8
LAYER_1
 10
192.4590723055934
 20
-0.6953444747612574
 30
0.0
  0
VERTEX
  5
35A
  8
LAYER_1
 10
192.1475848396998
 20
-0.5827333624658959
 30
0.0
  0
VERTEX
  5
35B
  8
LAYER_1
 10
191.8278905184174
 20
-0.4851370651432493
 30
0.0
  0
VERTEX
  5
35C
  8
LAYER_1
 10
191.4999893417462
 20
-0.4025555827933175
 30
0.0
  0
VERTEX
  5
35D
  8
LAYER_1
 10
191.1638813096862
 20
-0.3349889154161005
 30
0.0
  0
VERTEX
  5
35E
  8
LAYER_1
 10
190.8195664222374
 20
-0.2824370630115985
 30
0.0
  0
VERTEX
  5
35F
  8
LAYER_1
 10
190.4670446793997
 20
-0.2449000255798113
 30
0.0
  0
VERTEX
  5
360
  8
LAYER_1
 10
190.1063160811732
 20
-0.222377803120739
 30
0.0
  0
VERTEX
  5
361
  8
LAYER_1
 10
189.7373806275579
 20
-0.2148703956343816
 30
0.0
  0
VERTEX
  5
362
  8
LAYER_1
 10
189.4236549283765
 20
-0.2223311732605753
 30
0.0
  0
VERTEX
  5
363
  8
LAYER_1
 10
189.0912772851296
 20
-0.2447135061391563
 30
0.0
  0
VERTEX
  5
364
  8
LAYER_1
 10
188.7402476978172
 20
-0.2820173942701247
 30
0.0
  0
VERTEX
  5
365
  8
LAYER_1
 10
188.3705661664392
 20
-0.3342428376534805
 30
0.0
  0
VERTEX
  5
366
  8
LAYER_1
 10
187.9822326909959
 20
-0.4013898362892236
 30
0.0
  0
VERTEX
  5
367
  8
LAYER_1
 10
187.575247271487
 20
-0.4834583901773541
 30
0.0
  0
VERTEX
  5
368
  8
LAYER_1
 10
187.1496099079127
 20
-0.580448499317872
 30
0.0
  0
VERTEX
  5
369
  8
LAYER_1
 10
186.7053206002728
 20
-0.6923601637107772
 30
0.0
  0
VERTEX
  5
36A
  8
LAYER_1
 10
187.1828103683492
 20
3.079809004092766
 30
0.0
  0
VERTEX
  5
36B
  8
LAYER_1
 10
187.5707708049113
 20
3.04399727148704
 30
0.0
  0
VERTEX
  5
36C
  8
LAYER_1
 10
187.87517053206
 20
3.03206002728513
 30
0.0
  0
VERTEX
  5
36D
  8
LAYER_1
 10
188.2162213292974
 20
3.037655610504775
 30
0.0
  0
VERTEX
  5
36E
  8
LAYER_1
 10
188.5529821793997
 20
3.054442360163711
 30
0.0
  0
VERTEX
  5
36F
  8
LAYER_1
 10
188.885453082367
 20
3.082420276261937
 30
0.0
  0
VERTEX
  5
370
  8
LAYER_1
 10
189.2136340381991
 20
3.121589358799454
 30
0.0
  0
VERTEX
  5
371
  8
LAYER_1
 10
189.5375250468963
 20
3.171949607776261
 30
0.0
  0
VERTEX
  5
372
  8
LAYER_1
 10
189.8571261084583
 20
3.23350102319236
 30
0.0
  0
VERTEX
  5
373
  8
LAYER_1
 10
190.1724372228854
 20
3.306243605047748
 30
0.0
  0
VERTEX
  5
374
  8
LAYER_1
 10
190.4834583901773
 20
3.390177353342428
 30
0.0
  0
VERTEX
  5
375
  8
LAYER_1
 10
190.7901896103342
 20
3.485302268076397
 30
0.0
  0
VERTEX
  5
376
  8
LAYER_1
 10
191.092630883356
 20
3.591618349249658
 30
0.0
  0
VERTEX
  5
377
  8
LAYER_1
 10
191.3907822092428
 20
3.709125596862209
 30
0.0
  0
VERTEX
  5
378
  8
LAYER_1
 10
191.6846435879945
 20
3.83782401091405
 30
0.0
  0
VERTEX
  5
379
  8
LAYER_1
 10
191.9742150196112
 20
3.977713591405182
 30
0.0
  0
VERTEX
  5
37A
  8
LAYER_1
 10
192.2594965040927
 20
4.128794338335606
 30
0.0
  0
VERTEX
  5
37B
  8
LAYER_1
 10
192.5404880414393
 20
4.29106625170532
 30
0.0
  0
VERTEX
  5
37C
  8
LAYER_1
 10
192.8171896316507
 20
4.464529331514324
 30
0.0
  0
VERTEX
  5
37D
  8
LAYER_1
 10
193.0831663540245
 20
4.649649876364256
 30
0.0
  0
VERTEX
  5
37E
  8
LAYER_1
 10
193.3319832878581
 20
4.846894184856753
 30
0.0
  0
VERTEX
  5
37F
  8
LAYER_1
 10
193.5636404331514
 20
5.056262256991814
 30
0.0
  0
VERTEX
  5
380
  8
LAYER_1
 10
193.7781377899045
 20
5.27775409276944
 30
0.0
  0
VERTEX
  5
381
  8
LAYER_1
 10
193.9754753581173
 20
5.51136969218963
 30
0.0
  0
VERTEX
  5
382
  8
LAYER_1
 10
194.1556531377898
 20
5.757109055252386
 30
0.0
  0
VERTEX
  5
383
  8
LAYER_1
 10
194.3186711289222
 20
6.014972181957706
 30
0.0
  0
VERTEX
  5
384
  8
LAYER_1
 10
194.4645293315143
 20
6.284959072305591
 30
0.0
  0
VERTEX
  5
385
  8
LAYER_1
 10
194.5932277455661
 20
6.567069726296042
 30
0.0
  0
VERTEX
  5
386
  8
LAYER_1
 10
194.7047663710777
 20
6.861304143929057
 30
0.0
  0
VERTEX
  5
387
  8
LAYER_1
 10
194.7991452080491
 20
7.167662325204637
 30
0.0
  0
VERTEX
  5
388
  8
LAYER_1
 10
194.8763642564802
 20
7.486144270122781
 30
0.0
  0
VERTEX
  5
389
  8
LAYER_1
 10
194.9364235163711
 20
7.816749978683491
 30
0.0
  0
VERTEX
  5
38A
  8
LAYER_1
 10
194.9793229877217
 20
8.159479450886765
 30
0.0
  0
VERTEX
  5
38B
  8
LAYER_1
 10
195.005062670532
 20
8.514332686732605
 30
0.0
  0
VERTEX
  5
38C
  8
LAYER_1
 10
195.0136425648022
 20
8.881309686221009
 30
0.0
  0
VERTEX
  5
38D
  8
LAYER_1
 10
195.0073941635402
 20
9.173585649727148
 30
0.0
  0
VERTEX
  5
38E
  8
LAYER_1
 10
194.9886489597544
 20
9.459519952251021
 30
0.0
  0
VERTEX
  5
38F
  8
LAYER_1
 10
194.9574069534447
 20
9.73911259379263
 30
0.0
  0
VERTEX
  5
390
  8
LAYER_1
 10
194.9136681446112
 20
10.01236357435198
 30
0.0
  0
VERTEX
  5
391
  8
LAYER_1
 10
194.8574325332537
 20
10.27927289392906
 30
0.0
  0
VERTEX
  5
392
  8
LAYER_1
 10
194.7887001193724
 20
10.53984055252387
 30
0.0
  0
VERTEX
  5
393
  8
LAYER_1
 10
194.7074709029672
 20
10.79406655013642
 30
0.0
  0
VERTEX
  5
394
  8
LAYER_1
 10
194.6137448840382
 20
11.04195088676671
 30
0.0
  0
VERTEX
  5
395
  8
LAYER_1
 10
194.5075220625852
 20
11.28349356241473
 30
0.0
  0
VERTEX
  5
396
  8
LAYER_1
 10
194.3888024386084
 20
11.51869457708049
 30
0.0
  0
VERTEX
  5
397
  8
LAYER_1
 10
194.2575860121077
 20
11.74755393076398
 30
0.0
  0
VERTEX
  5
398
  8
LAYER_1
 10
194.1138727830832
 20
11.97007162346521
 30
0.0
  0
VERTEX
  5
399
  8
LAYER_1
 10
193.9576627515348
 20
12.18624765518417
 30
0.0
  0
VERTEX
  5
39A
  8
LAYER_1
 10
193.7889559174624
 20
12.39608202592087
 30
0.0
  0
VERTEX
  5
39B
  8
LAYER_1
 10
193.6077522808663
 20
12.59957473567531
 30
0.0
  0
VERTEX
  5
39C
  8
LAYER_1
 10
193.4140518417462
 20
12.79672578444747
 30
0.0
  0
VERTEX
  5
39D
  8
LAYER_1
 10
193.2104658722715
 20
12.98464412090723
 30
0.0
  0
VERTEX
  5
39E
  8
LAYER_1
 10
192.9996056446112
 20
13.16043869372442
 30
0.0
  0
VERTEX
  5
39F
  8
LAYER_1
 10
192.7814711587653
 20
13.32410950289904
 30
0.0
  0
VERTEX
  5
3A0
  8
LAYER_1
 10
192.5560624147339
 20
13.4756565484311
 30
0.0
  0
VERTEX
  5
3A1
  8
LAYER_1
 10
192.323379412517
 20
13.6150798303206
 30
0.0
  0
VERTEX
  5
3A2
  8
LAYER_1
 10
192.0834221521146
 20
13.74237934856753
 30
0.0
  0
VERTEX
  5
3A3
  8
LAYER_1
 10
191.8361906335265
 20
13.85755510317189
 30
0.0
  0
VERTEX
  5
3A4
  8
LAYER_1
 10
191.581684856753
 20
13.96060709413369
 30
0.0
  0
VERTEX
  5
3A5
  8
LAYER_1
 10
191.319904821794
 20
14.05153532145293
 30
0.0
  0
VERTEX
  5
3A6
  8
LAYER_1
 10
191.0508505286494
 20
14.1303397851296
 30
0.0
  0
VERTEX
  5
3A7
  8
LAYER_1
 10
190.7745219773192
 20
14.19702048516371
 30
0.0
  0
VERTEX
  5
3A8
  8
LAYER_1
 10
190.4909191678035
 20
14.25157742155525
 30
0.0
  0
VERTEX
  5
3A9
  8
LAYER_1
 10
190.2000421001023
 20
14.29401059430422
 30
0.0
  0
VERTEX
  5
3AA
  8
LAYER_1
 10
189.9018907742155
 20
14.32432000341064
 30
0.0
  0
VERTEX
  5
3AB
  8
LAYER_1
 10
189.5964651901432
 20
14.34250564887448
 30
0.0
  0
VERTEX
  5
3AC
  8
LAYER_1
 10
189.2837653478854
 20
14.34856753069577
 30
0.0
  0
VERTEX
  5
3AD
  8
LAYER_1
 10
188.9736767777967
 20
14.34241238915416
 30
0.0
  0
VERTEX
  5
3AE
  8
LAYER_1
 10
188.670116388131
 20
14.32394696452933
 30
0.0
  0
VERTEX
  5
3AF
  8
LAYER_1
 10
188.3730841788881
 20
14.29317125682128
 30
0.0
  0
VERTEX
  5
3B0
  8
LAYER_1
 10
188.0825801500682
 20
14.25008526603001
 30
0.0
  0
VERTEX
  5
3B1
  8
LAYER_1
 10
187.7986043016712
 20
14.19468899215552
 30
0.0
  0
VERTEX
  5
3B2
  8
LAYER_1
 10
187.5211566336971
 20
14.12698243519781
 30
0.0
  0
VERTEX
  5
3B3
  8
LAYER_1
 10
187.250237146146
 20
14.04696559515689
 30
0.0
  0
VERTEX
  5
3B4
  8
LAYER_1
 10
186.9858458390177
 20
13.95463847203274
 30
0.0
  0
VERTEX
  5
3B5
  8
LAYER_1
 10
186.7279827123124
 20
13.85000106582537
 30
0.0
  0
VERTEX
  5
3B6
  8
LAYER_1
 10
186.47664776603
 20
13.73305337653479
 30
0.0
  0
VERTEX
  5
3B7
  8
LAYER_1
 10
186.2318410001705
 20
13.60379540416098
 30
0.0
  0
VERTEX
  5
3B8
  8
LAYER_1
 10
185.993562414734
 20
13.46222714870395
 30
0.0
  0
VERTEX
  5
3B9
  8
LAYER_1
 10
185.7618120097203
 20
13.30834861016371
 30
0.0
  0
VERTEX
  5
3BA
  8
LAYER_1
 10
185.5365897851296
 20
13.14215978854024
 30
0.0
  0
VERTEX
  5
3BB
  8
LAYER_1
 10
185.3178957409618
 20
12.96366068383356
 30
0.0
  0
VERTEX
  5
3BC
  8
LAYER_1
 10
185.1057298772169
 20
12.77285129604365
 30
0.0
  0
VERTEX
  5
3BD
  8
LAYER_1
 10
184.9014910896998
 20
12.56973162517053
 30
0.0
  0
VERTEX
  5
3BE
  8
LAYER_1
 10
184.7065782742155
 20
12.35430167121419
 30
0.0
  0
VERTEX
  5
3BF
  8
LAYER_1
 10
184.520991430764
 20
12.12656143417462
 30
0.0
  0
VERTEX
  5
3C0
  8
LAYER_1
 10
184.3447305593451
 20
11.88651091405184
 30
0.0
  0
VERTEX
  5
3C1
  8
LAYER_1
 10
184.177795659959
 20
11.63415011084584
 30
0.0
  0
VERTEX
  5
3C2
  8
LAYER_1
 10
184.0201867326057
 20
11.36947902455662
 30
0.0
  0
VERTEX
  5
3C3
  8
LAYER_1
 10
183.8719037772851
 20
11.09249765518418
 30
0.0
  0
VERTEX
  5
3C4
  8
LAYER_1
 10
183.7329467939973
 20
10.80320600272851
 30
0.0
  0
VERTEX
  5
3C5
  8
LAYER_1
 10
183.6033157827421
 20
10.50160406718963
 30
0.0
  0
VERTEX
  5
3C6
  8
LAYER_1
 10
183.4830107435198
 20
10.18769184856753
 30
0.0
  0
VERTEX
  5
3C7
  8
LAYER_1
 10
183.3720316763302
 20
9.861469346862208
 30
0.0
  0
VERTEX
  5
3C8
  8
LAYER_1
 10
183.2703785811732
 20
9.522936562073667
 30
0.0
  0
VERTEX
  5
3C9
  8
LAYER_1
 10
183.1780514580491
 20
9.172093494201908
 30
0.0
  0
VERTEX
  5
3CA
  8
LAYER_1
 10
183.0950503069577
 20
8.808940143246929
 30
0.0
  0
VERTEX
  5
3CB
  8
LAYER_1
 10
183.021375127899
 20
8.43347650920873
 30
0.0
  0
VERTEX
  5
3CC
  8
LAYER_1
 10
182.9570259208731
 20
8.04570259208731
 30
0.0
  0
VERTEX
  5
3CD
  8
LAYER_1
 10
178.6596180081855
 20
8.809686221009553
 30
0.0
  0
VERTEX
  5
3CE
  8
LAYER_1
 10
178.7659340893588
 20
9.342245853939295
 30
0.0
  0
VERTEX
  5
3CF
  8
LAYER_1
 10
178.887917803547
 20
9.859604152455665
 30
0.0
  0
VERTEX
  5
3D0
  8
LAYER_1
 10
179.0255691507503
 20
10.36176111655867
 30
0.0
  0
VERTEX
  5
3D1
  8
LAYER_1
 10
179.1788881309686
 20
10.8487167462483
 30
0.0
  0
VERTEX
  5
3D2
  8
LAYER_1
 10
179.3478747442018
 20
11.32047104152456
 30
0.0
  0
VERTEX
  5
3D3
  8
LAYER_1
 10
179.5325289904501
 20
11.77702400238745
 30
0.0
  0
VERTEX
  5
3D4
  8
LAYER_1
 10
179.7328508697134
 20
12.21837562883698
 30
0.0
  0
VERTEX
  5
3D5
  8
LAYER_1
 10
179.9488403819918
 20
12.64452592087313
 30
0.0
  0
VERTEX
  5
3D6
  8
LAYER_1
 10
180.1804975272851
 20
13.05547487849591
 30
0.0
  0
VERTEX
  5
3D7
  8
LAYER_1
 10
180.4278223055934
 20
13.45122250170532
 30
0.0
  0
VERTEX
  5
3D8
  8
LAYER_1
 10
180.6908147169167
 20
13.83176879050137
 30
0.0
  0
VERTEX
  5
3D9
  8
LAYER_1
 10
180.9694747612551
 20
14.19711374488404
 30
0.0
  0
VERTEX
  5
3DA
  8
LAYER_1
 10
181.2638024386084
 20
14.54725736485334
 30
0.0
  0
VERTEX
  5
3DB
  8
LAYER_1
 10
181.5737977489768
 20
14.88219965040928
 30
0.0
  0
VERTEX
  5
3DC
  8
LAYER_1
 10
181.8994606923602
 20
15.20194060155184
 30
0.0
  0
VERTEX
  5
3DD
  8
LAYER_1
 10
182.2407912687585
 20
15.50648021828103
 30
0.0
  0
VERTEX
  5
3DE
  8
LAYER_1
 10
182.595271465723
 20
15.79413982563097
 30
0.0
  0
VERTEX
  5
3DF
  8
LAYER_1
 10
182.9603832708049
 20
16.06324074863574
 30
0.0
  0
VERTEX
  5
3E0
  8
LAYER_1
 10
183.3361266840041
 20
16.31378298729536
 30
0.0
  0
VERTEX
  5
3E1
  8
LAYER_1
 10
183.7225017053206
 20
16.54576654160982
 30
0.0
  0
VERTEX
  5
3E2
  8
LAYER_1
 10
184.1195083347544
 20
16.75919141157912
 30
0.0
  0
VERTEX
  5
3E3
  8
LAYER_1
 10
184.5271465723055
 20
16.95405759720327
 30
0.0
  0
VERTEX
  5
3E4
  8
LAYER_1
 10
184.945416417974
 20
17.13036509848227
 30
0.0
  0
VERTEX
  5
3E5
  8
LAYER_1
 10
185.3743178717598
 20
17.2881139154161
 30
0.0
  0
VERTEX
  5
3E6
  8
LAYER_1
 10
185.813850933663
 20
17.42730404800477
 30
0.0
  0
VERTEX
  5
3E7
  8
LAYER_1
 10
186.2640156036834
 20
17.54793549624829
 30
0.0
  0
VERTEX
  5
3E8
  8
LAYER_1
 10
186.7248118818212
 20
17.65000826014666
 30
0.0
  0
VERTEX
  5
3E9
  8
LAYER_1
 10
187.1962397680764
 20
17.73352233969987
 30
0.0
  0
VERTEX
  5
3EA
  8
LAYER_1
 10
187.6782992624488
 20
17.79847773490791
 30
0.0
  0
VERTEX
  5
3EB
  8
LAYER_1
 10
188.1709903649386
 20
17.84487444577081
 30
0.0
  0
VERTEX
  5
3EC
  8
LAYER_1
 10
188.6743130755457
 20
17.87271247228854
 30
0.0
  0
VERTEX
  5
3ED
  8
LAYER_1
 10
189.1882673942701
 20
17.88199181446112
 30
0.0
  0
VERTEX
  5
3EE
  8
LAYER_1
 10
189.5446127856412
 20
17.87718893886426
 30
0.0
  0
VERTEX
  5
3EF
  8
LAYER_1
 10
189.8974143076398
 20
17.86278031207367
 30
0.0
  0
VERTEX
  5
3F0
  8
LAYER_1
 10
190.246671960266
 20
17.83876593408937
 30
0.0
  0
VERTEX
  5
3F1
  8
LAYER_1
 10
190.5923857435197
 20
17.80514580491133
 30
0.0
  0
VERTEX
  5
3F2
  8
LAYER_1
 10
190.9345556574011
 20
17.76191992453957
 30
0.0
  0
VERTEX
  5
3F3
  8
LAYER_1
 10
191.2731817019099
 20
17.70908829297408
 30
0.0
  0
VERTEX
  5
3F4
  8
LAYER_1
 10
191.6082638770463
 20
17.64665091021487
 30
0.0
  0
VERTEX
  5
3F5
  8
LAYER_1
 10
191.9398021828103
 20
17.57460777626194
 30
0.0
  0
VERTEX
  5
3F6
  8
LAYER_1
 10
192.2677966192019
 20
17.49295889111529
 30
0.0
  0
VERTEX
  5
3F7
  8
LAYER_1
 10
192.592247186221
 20
17.4017042547749
 30
0.0
  0
VERTEX
  5
3F8
  8
LAYER_1
 10
192.9131538838677
 20
17.30084386724079
 30
0.0
  0
VERTEX
  5
3F9
  8
LAYER_1
 10
193.2305167121418
 20
17.19037772851296
 30
0.0
  0
VERTEX
  5
3FA
  8
LAYER_1
 10
193.5443356710436
 20
17.07030583859141
 30
0.0
  0
VERTEX
  5
3FB
  8
LAYER_1
 10
193.8546107605729
 20
16.94062819747612
 30
0.0
  0
VERTEX
  5
3FC
  8
LAYER_1
 10
194.1613419807298
 20
16.80134480516712
 30
0.0
  0
VERTEX
  5
3FD
  8
LAYER_1
 10
194.4645293315143
 20
16.65245566166439
 30
0.0
  0
VERTEX
  5
3FE
  8
LAYER_1
 10
194.7615149108969
 20
16.49526640305253
 30
0.0
  0
VERTEX
  5
3FF
  8
LAYER_1
 10
195.0496408168485
 20
16.3310826654161
 30
0.0
  0
VERTEX
  5
400
  8
LAYER_1
 10
195.328907049369
 20
16.15990444875511
 30
0.0
  0
VERTEX
  5
401
  8
LAYER_1
 10
195.5993136084584
 20
15.98173175306958
 30
0.0
  0
VERTEX
  5
402
  8
LAYER_1
 10
195.8608604941166
 20
15.79656457835948
 30
0.0
  0
VERTEX
  5
403
  8
LAYER_1
 10
196.1135477063438
 20
15.60440292462483
 30
0.0
  0
VERTEX
  5
404
  8
LAYER_1
 10
196.3573752451398
 20
15.40524679186562
 30
0.0
  0
VERTEX
  5
405
  8
LAYER_1
 10
196.5923431105047
 20
15.19909618008186
 30
0.0
  0
VERTEX
  5
406
  8
LAYER_1
 10
196.8184513024385
 20
14.98595108927353
 30
0.0
  0
VERTEX
  5
407
  8
LAYER_1
 10
197.0356998209413
 20
14.76581151944066
 30
0.0
  0
VERTEX
  5
408
  8
LAYER_1
 10
197.2440886660129
 20
14.53867747058322
 30
0.0
  0
VERTEX
  5
409
  8
LAYER_1
 10
197.4436178376534
 20
14.30454894270123
 30
0.0
  0
VERTEX
  5
40A
  8
LAYER_1
 10
197.6342873358629
 20
14.06342593579468
 30
0.0
  0
VERTEX
  5
40B
  8
LAYER_1
 10
197.8160971606412
 20
13.81530844986357
 30
0.0
  0
VERTEX
  5
40C
  8
LAYER_1
 10
197.9890473119884
 20
13.56019648490791
 30
0.0
  0
VERTEX
  5
40D
  8
LAYER_1
 10
198.1531377899045
 20
13.29809004092769
 30
0.0
  0
VERTEX
  5
40E
  8
LAYER_1
 10
198.3078090360675
 20
13.03146050051159
 30
0.0
  0
VERTEX
  5
40F
  8
LAYER_1
 10
198.4525014921555
 20
12.76277924624829
 30
0.0
  0
VERTEX
  5
410
  8
LAYER_1
 10
198.5872151581685
 20
12.49204627813779
 30
0.0
  0
VERTEX
  5
411
  8
LAYER_1
 10
198.7119500341064
 20
12.21926159618008
 30
0.0
  0
VERTEX
  5
412
  8
LAYER_1
 10
198.8267061199693
 20
11.94442520037517
 30
0.0
  0
VERTEX
  5
413
  8
LAYER_1
 10
198.9314834157572
 20
11.66753709072306
 30
0.0
  0
VERTEX
  5
414
  8
LAYER_1
 10
199.02628192147
 20
11.38859726722374
 30
0.0
  0
VERTEX
  5
415
  8
LAYER_1
 10
199.1111016371078
 20
11.10760572987721
 30
0.0
  0
VERTEX
  5
416
  8
LAYER_1
 10
199.1859425626705
 20
10.82456247868349
 30
0.0
  0
VERTEX
  5
417
  8
LAYER_1
 10
199.2508046981582
 20
10.53946751364256
 30
0.0
  0
VERTEX
  5
418
  8
LAYER_1
 10
199.3056880435709
 20
10.25232083475443
 30
0.0
  0
VERTEX
  5
419
  8
LAYER_1
 10
199.3505925989085
 20
9.963122442019099
 30
0.0
  0
VERTEX
  5
41A
  8
LAYER_1
 10
199.3855183641712
 20
9.67187233543656
 30
0.0
  0
VERTEX
  5
41B
  8
LAYER_1
 10
199.4104653393588
 20
9.378570515006821
 30
0.0
  0
VERTEX
  5
41C
  8
LAYER_1
 10
199.4254335244713
 20
9.083216980729876
 30
0.0
  0
VERTEX
  5
41D
  8
LAYER_1
 10
199.4304229195088
 20
8.785811732605726
 30
0.0
  0
VERTEX
  5
41E
  8
LAYER_1
 10
199.4256666737721
 20
8.50388759805593
 30
0.0
  0
VERTEX
  5
41F
  8
LAYER_1
 10
199.411397936562
 20
8.225134293997268
 30
0.0
  0
VERTEX
  5
420
  8
LAYER_1
 10
199.3876167078785
 20
7.949551820429739
 30
0.0
  0
VERTEX
  5
421
  8
LAYER_1
 10
199.3543229877216
 20
7.67714017735334
 30
0.0
  0
VERTEX
  5
422
  8
LAYER_1
 10
199.3115167760913
 20
7.407899364768073
 30
0.0
  0
VERTEX
  5
423
  8
LAYER_1
 10
199.2591980729877
 20
7.141829382673939
 30
0.0
  0
VERTEX
  5
424
  8
LAYER_1
 10
199.1973668784106
 20
6.878930231070937
 30
0.0
  0
VERTEX
  5
425
  8
LAYER_1
 10
199.1260231923601
 20
6.619201909959068
 30
0.0
  0
VERTEX
  5
426
  8
LAYER_1
 10
199.0451670148362
 20
6.362644419338332
 30
0.0
  0
VERTEX
  5
427
  8
LAYER_1
 10
198.954798345839
 20
6.109257759208727
 30
0.0
  0
VERTEX
  5
428
  8
LAYER_1
 10
198.8549171853683
 20
5.859041929570255
 30
0.0
  0
VERTEX
  5
429
  8
LAYER_1
 10
198.7455235334243
 20
5.611996930422915
 30
0.0
  0
VERTEX
  5
42A
  8
LAYER_1
 10
198.6266173900068
 20
5.368122761766708
 30
0.0
  0
VERTEX
  5
42B
  8
LAYER_1
 10
198.4981987551159
 20
5.127419423601632
 30
0.0
  0
VERTEX
  5
42C
  8
LAYER_1
 10
198.3602676287517
 20
4.88988691592769
 30
0.0
  0
VERTEX
  5
42D
  8
LAYER_1
 10
198.212824010914
 20
4.655525238744879
 30
0.0
  0
VERTEX
  5
42E
  8
LAYER_1
 10
198.0560544210436
 20
4.425733287858113
 30
0.0
  0
VERTEX
  5
42F
  8
LAYER_1
 10
197.8901453785811
 20
4.201909959072301
 30
0.0
  0
VERTEX
  5
430
  8
LAYER_1
 10
197.7150968835265
 20
3.984055252387445
 30
0.0
  0
VERTEX
  5
431
  8
LAYER_1
 10
197.5309089358799
 20
3.772169167803544
 30
0.0
  0
VERTEX
  5
432
  8
LAYER_1
 10
197.3375815356411
 20
3.566251705320597
 30
0.0
  0
VERTEX
  5
433
  8
LAYER_1
 10
197.1351146828103
 20
3.366302864938605
 30
0.0
  0
VERTEX
  5
434
  8
LAYER_1
 10
196.9235083773874
 20
3.172322646657569
 30
0.0
  0
VERTEX
  5
435
  8
LAYER_1
 10
196.7027626193724
 20
2.984311050477487
 30
0.0
  0
VERTEX
  5
436
  8
LAYER_1
 10
196.4728774087653
 20
2.80226807639836
 30
0.0
  0
VERTEX
  5
437
  8
LAYER_1
 10
196.2338527455661
 20
2.626193724420189
 30
0.0
  0
VERTEX
  5
438
  8
LAYER_1
 10
195.9856886297748
 20
2.456087994542971
 30
0.0
  0
VERTEX
  5
439
  8
LAYER_1
 10
195.7283850613915
 20
2.291950886766709
 30
0.0
  0
VERTEX
  5
43A
  8
LAYER_1
 10
195.461942040416
 20
2.133782401091402
 30
0.0
  0
VERTEX
  5
43B
  8
LAYER_1
 10
195.1863595668485
 20
1.98158253751705
 30
0.0
  0
VERTEX
  5
43C
  8
LAYER_1
 10
194.9016376406889
 20
1.835351296043654
 30
0.0
  0
VERTEX
  5
43D
  8
LAYER_1
 10
194.6077762619372
 20
1.695088676671212
 30
0.0
  0
VERTEX
  5
43E
  8
LAYER_1
 10
194.9903276347203
 20
1.599544093195768
 30
0.0
  0
VERTEX
  5
43F
  8
LAYER_1
 10
195.3620608799454
 20
1.491969005798087
 30
0.0
  0
VERTEX
  5
440
  8
LAYER_1
 10
195.7229759976125
 20
1.372363414478169
 30
0.0
  0
VERTEX
  5
441
  8
LAYER_1
 10
196.0730729877216
 20
1.240727319236013
 30
0.0
  0
VERTEX
  5
442
  8
LAYER_1
 10
196.4123518502728
 20
1.09706072007162
 30
0.0
  0
VERTEX
  5
443
  8
LAYER_1
 10
196.740812585266
 20
0.9413636169849897
 30
0.0
  0
VERTEX
  5
444
  8
LAYER_1
 10
197.0584551927012
 20
0.7736360099761219
 30
0.0
  0
VERTEX
  5
445
  8
LAYER_1
 10
197.3652796725784
 20
0.5938778990450166
 30
0.0
  0
VERTEX
  5
446
  8
LAYER_1
 10
197.6612860248977
 20
0.4020892841916741
 30
0.0
  0
VERTEX
  5
447
  8
LAYER_1
 10
197.9464742496589
 20
0.1982701654160943
 30
0.0
  0
VERTEX
  5
448
  8
LAYER_1
 10
198.2208443468622
 20
-0.017579457281723
 30
0.0
  0
VERTEX
  5
449
  8
LAYER_1
 10
198.4843963165075
 20
-0.2454595839017775
 30
0.0
  0
VERTEX
  5
44A
  8
LAYER_1
 10
198.7371301585948
 20
-0.4853702144440694
 30
0.0
  0
VERTEX
  5
44B
  8
LAYER_1
 10
198.9790458731241
 20
-0.7373113489085986
 30
0.0
  0
VERTEX
  5
44C
  8
LAYER_1
 10
199.2101434600955
 20
-1.001282987295365
 30
0.0
  0
VERTEX
  5
44D
  8
LAYER_1
 10
199.4304229195088
 20
-1.277285129604369
 30
0.0
  0
VERTEX
  5
44E
  8
LAYER_1
 10
199.6385786152796
 20
-1.563732360590044
 30
0.0
  0
VERTEX
  5
44F
  8
LAYER_1
 10
199.8333049113233
 20
-1.859039265006824
 30
0.0
  0
VERTEX
  5
450
  8
LAYER_1
 10
200.0146018076398
 20
-2.16320584285471
 30
0.0
  0
VERTEX
  5
451
  8
LAYER_1
 10
200.1824693042291
 20
-2.4762320941337
 30
0.0
  0
VERTEX
  5
452
  8
LAYER_1
 10
200.3369074010914
 20
-2.798118018843796
 30
0.0
  0
VERTEX
  5
453
  8
LAYER_1
 10
200.4779160982264
 20
-3.128863616984996
 30
0.0
  0
VERTEX
  5
454
  8
LAYER_1
 10
200.6054953956343
 20
-3.468468888557302
 30
0.0
  0
VERTEX
  5
455
  8
LAYER_1
 10
200.7196452933151
 20
-3.816933833560713
 30
0.0
  0
VERTEX
  5
456
  8
LAYER_1
 10
200.8203657912687
 20
-4.174258451995229
 30
0.0
  0
VERTEX
  5
457
  8
LAYER_1
 10
200.9076568894952
 20
-4.540442743860849
 30
0.0
  0
VERTEX
  5
458
  8
LAYER_1
 10
200.9815185879945
 20
-4.915486709157575
 30
0.0
  0
VERTEX
  5
459
  8
LAYER_1
 10
201.0419508867666
 20
-5.299390347885405
 30
0.0
  0
VERTEX
  5
45A
  8
LAYER_1
 10
201.0889537858117
 20
-5.692153660044342
 30
0.0
  0
VERTEX
  5
45B
  8
LAYER_1
 10
201.1225272851296
 20
-6.093776645634382
 30
0.0
  0
VERTEX
  5
45C
  8
LAYER_1
 10
201.1426713847203
 20
-6.504259304655529
 30
0.0
  0
VERTEX
  5
45D
  8
LAYER_1
 10
201.1493860845839
 20
-6.92360163710778
 30
0.0
  0
VERTEX
  5
45E
  8
LAYER_1
 10
201.136329723738
 20
-7.491133665160303
 30
0.0
  0
VERTEX
  5
45F
  8
LAYER_1
 10
201.0971606412005
 20
-8.047754305934518
 30
0.0
  0
VERTEX
  5
460
  8
LAYER_1
 10
201.0318788369713
 20
-8.593463559430425
 30
0.0
  0
VERTEX
  5
461
  8
LAYER_1
 10
200.9404843110504
 20
-9.128261425648025
 30
0.0
  0
VERTEX
  5
462
  8
LAYER_1
 10
200.8229770634379
 20
-9.652147904587316
 30
0.0
  0
VERTEX
  5
463
  8
LAYER_1
 10
200.6793570941336
 20
-10.1651229962483
 30
0.0
  0
VERTEX
  5
464
  8
LAYER_1
 10
200.5096244031377
 20
-10.66718670063097
 30
0.0
  0
VERTEX
  5
465
  8
LAYER_1
 10
200.3137789904502
 20
-11.15833901773534
 30
0.0
  0
VERTEX
  5
466
  8
LAYER_1
 10
200.0918208560709
 20
-11.63857994756139
 30
0.0
  0
VERTEX
  5
467
  8
LAYER_1
 10
199.8437499999999
 20
-12.10790949010914
 30
0.0
  0
VERTEX
  5
468
  8
LAYER_1
 10
199.5695664222373
 20
-12.56632764537859
 30
0.0
  0
VERTEX
  5
469
  8
LAYER_1
 10
199.269270122783
 20
-13.01383441336972
 30
0.0
  0
VERTEX
  5
46A
  8
LAYER_1
 10
198.942861101637
 20
-13.45042979408254
 30
0.0
  0
VERTEX
  5
46B
  8
LAYER_1
 10
198.5903393587994
 20
-13.87611378751706
 30
0.0
  0
VERTEX
  5
46C
  8
LAYER_1
 10
198.21170489427
 20
-14.29088639367327
 30
0.0
  0
VERTEX
  5
46D
  8
LAYER_1
 10
197.8069577080491
 20
-14.69474761255116
 30
0.0
  0
VERTEX
  5
46E
  8
LAYER_1
 10
197.382252941678
 20
-15.0807029651262
 30
0.0
  0
VERTEX
  5
46F
  8
LAYER_1
 10
196.9437457366985
 20
-15.44175797237381
 30
0.0
  0
VERTEX
  5
470
  8
LAYER_1
 10
196.4914360931105
 20
-15.777912634294
 30
0.0
  0
VERTEX
  5
471
  8
LAYER_1
 10
196.025324010914
 20
-16.08916695088677
 30
0.0
  0
VERTEX
  5
472
  8
LAYER_1
 10
195.5454094901091
 20
-16.37552092215212
 30
0.0
  0
VERTEX
  5
473
  8
LAYER_1
 10
195.0516925306957
 20
-16.63697454809004
 30
0.0
  0
VERTEX
  5
474
  8
LAYER_1
 10
194.5441731326739
 20
-16.87352782870055
 30
0.0
  0
VERTEX
  5
475
  8
LAYER_1
 10
194.0228512960436
 20
-17.08518076398363
 30
0.0
  0
VERTEX
  5
476
  8
LAYER_1
 10
193.4877270208049
 20
-17.2719333539393
 30
0.0
  0
VERTEX
  5
477
  8
LAYER_1
 10
192.9388003069577
 20
-17.43378559856753
 30
0.0
  0
VERTEX
  5
478
  8
LAYER_1
 10
192.376071154502
 20
-17.57073749786835
 30
0.0
  0
VERTEX
  5
479
  8
LAYER_1
 10
191.7995395634379
 20
-17.68278905184175
 30
0.0
  0
VERTEX
  5
47A
  8
LAYER_1
 10
191.2092055337653
 20
-17.76994026048773
 30
0.0
  0
VERTEX
  5
47B
  8
LAYER_1
 10
190.6050690654843
 20
-17.83219112380628
 30
0.0
  0
VERTEX
  5
47C
  8
LAYER_1
 10
189.9871301585948
 20
-17.86954164179741
 30
0.0
  0
VERTEX
  5
47D
  8
LAYER_1
 10
189.3553888130968
 20
-17.88199181446112
 30
0.0
  0
VERTEX
  5
47E
  8
LAYER_1
 10
188.7855252920361
 20
-17.87126694662347
 30
0.0
  0
VERTEX
  5
47F
  8
LAYER_1
 10
188.2278787943383
 20
-17.83909234311051
 30
0.0
  0
VERTEX
  5
480
  8
LAYER_1
 10
187.6824493200034
 20
-17.78546800392224
 30
0.0
  0
VERTEX
  5
481
  8
LAYER_1
 10
187.1492368690313
 20
-17.71039392905866
 30
0.0
  0
VERTEX
  5
482
  8
LAYER_1
 10
186.6282414414222
 20
-17.61387011851978
 30
0.0
  0
VERTEX
  5
483
  8
LAYER_1
 10
186.119463037176
 20
-17.49589657230559
 30
0.0
  0
VERTEX
  5
484
  8
LAYER_1
 10
185.6229016562926
 20
-17.3564732904161
 30
0.0
  0
VERTEX
  5
485
  8
LAYER_1
 10
185.1385572987721
 20
-17.1956002728513
 30
0.0
  0
VERTEX
  5
486
  8
LAYER_1
 10
184.6664299646145
 20
-17.01327751961119
 30
0.0
  0
VERTEX
  5
487
  8
LAYER_1
 10
184.2065196538199
 20
-16.80950503069577
 30
0.0
  0
VERTEX
  5
488
  8
LAYER_1
 10
183.7588263663881
 20
-16.58428280610505
 30
0.0
  0
VERTEX
  5
489
  8
LAYER_1
 10
183.3233501023192
 20
-16.33761084583902
 30
0.0
  0
VERTEX
  5
48A
  8
LAYER_1
 10
182.9000908616132
 20
-16.06948914989768
 30
0.0
  0
VERTEX
  5
48B
  8
LAYER_1
 10
182.4890486442701
 20
-15.77991771828104
 30
0.0
  0
VERTEX
  5
48C
  8
LAYER_1
 10
182.0902234502898
 20
-15.46889655098909
 30
0.0
  0
VERTEX
  5
48D
  8
LAYER_1
 10
181.7036152796725
 20
-15.13642564802183
 30
0.0
  0
VERTEX
  5
48E
  8
LAYER_1
 10
181.3333275601125
 20
-14.78688821623465
 30
0.0
  0
VERTEX
  5
48F
  8
LAYER_1
 10
180.9834637193042
 20
-14.42466746248294
 30
0.0
  0
VERTEX
  5
490
  8
LAYER_1
 10
180.6540237572476
 20
-14.04976338676671
 30
0.0
  0
VERTEX
  5
491
  8
LAYER_1
 10
180.3450076739427
 20
-13.66217598908595
 30
0.0
  0
VERTEX
  5
492
  8
LAYER_1
 10
180.0564154693895
 20
-13.26190526944065
 30
0.0
  0
VERTEX
  5
493
  8
LAYER_1
 10
179.788247143588
 20
-12.84895122783083
 30
0.0
  0
VERTEX
  5
494
  8
LAYER_1
 10
179.5405026965382
 20
-12.42331386425648
 30
0.0
  0
VERTEX
  5
495
  8
LAYER_1
 10
179.3131821282401
 20
-11.9849931787176
 30
0.0
  0
VERTEX
  5
496
  8
LAYER_1
 10
179.1062854386937
 20
-11.53398917121419
 30
0.0
  0
VERTEX
  5
497
  8
LAYER_1
 10
178.919812627899
 20
-11.07030184174625
 30
0.0
  0
VERTEX
  5
498
  8
LAYER_1
 10
178.753763695856
 20
-10.59393119031378
 30
0.0
  0
VERTEX
  5
499
  8
LAYER_1
 10
178.6081386425648
 20
-10.10487721691678
 30
0.0
  0
VERTEX
  5
49A
  8
LAYER_1
 10
178.4829374680252
 20
-9.60313992155525
 30
0.0
  0
VERTEX
  5
49B
  8
LAYER_1
 10
178.3781601722374
 20
-9.088719304229194
 30
0.0
  0
VERTEX
  5
49C
  8
LAYER_1
 10
178.2938067552012
 20
-8.561615364938607
 30
0.0
  0
SEQEND
  5
E9B
  8
LAYER_1
  0
POLYLINE
  5
76
  8
LAYER_1
 66
     1
 10
0.0
 20
0.0
 30
0.0
 70
     1
  0
VERTEX
  5
49D
  8
LAYER_1
 10
165.1184572324149
 20
-106.959226308652
 30
0.0
  0
VERTEX
  5
49E
  8
LAYER_1
 10
165.1184572324149
 20
-98.57928087891119
 30
0.0
  0
VERTEX
  5
49F
  8
LAYER_1
 10
149.9342826075854
 20
-98.57928087891118
 30
0.0
  0
VERTEX
  5
4A0
  8
LAYER_1
 10
149.9342826075854
 20
-94.6399902922809
 30
0.0
  0
VERTEX
  5
4A1
  8
LAYER_1
 10
165.906315349741
 20
-71.95922630865198
 30
0.0
  0
VERTEX
  5
4A2
  8
LAYER_1
 10
169.4158651451025
 20
-71.95922630865198
 30
0.0
  0
VERTEX
  5
4A3
  8
LAYER_1
 10
169.4158651451025
 20
-94.6399902922809
 30
0.0
  0
VERTEX
  5
4A4
  8
LAYER_1
 10
174.1430138490588
 20
-94.6399902922809
 30
0.0
  0
VERTEX
  5
4A5
  8
LAYER_1
 10
174.1430138490588
 20
-98.57928087891119
 30
0.0
  0
VERTEX
  5
4A6
  8
LAYER_1
 10
169.4158651451025
 20
-98.57928087891119
 30
0.0
  0
VERTEX
  5
4A7
  8
LAYER_1
 10
169.4158651451025
 20
-106.959226308652
 30
0.0
  0
SEQEND
  5
E9C
  8
LAYER_1
  0
POLYLINE
  5
77
  8
LAYER_1
 66
     1
 10
0.0
 20
0.0
 30
0.0
 70
     1
  0
VERTEX
  5
4A8
  8
LAYER_1
 10
165.1184572324149
 20
-94.6399902922809
 30
0.0
  0
VERTEX
  5
4A9
  8
LAYER_1
 10
165.1184572324149
 20
-78.85895345735592
 30
0.0
  0
VERTEX
  5
4AA
  8
LAYER_1
 10
154.1600670550615
 20
-94.6399902922809
 30
0.0
  0
SEQEND
  5
E9D
  8
LAYER_1
  0
POLYLINE
  5
78
  8
LAYER_1
 66
     1
 10
0.0
 20
0.0
 30
0.0
 70
     1
  0
VERTEX
  5
4AB
  8
LAYER_1
 10
83.8963009452748
 20
-171.7211906879124
 30
0.0
  0
VERTEX
  5
4AC
  8
LAYER_1
 10
88.40857925359676
 20
-171.3391988734513
 30
0.0
  0
VERTEX
  5
4AD
  8
LAYER_1
 10
88.47642570013495
 20
-171.7446455075747
 30
0.0
  0
VERTEX
  5
4AE
  8
LAYER_1
 10
88.5546239756295
 20
-172.1373155600133
 30
0.0
  0
VERTEX
  5
4AF
  8
LAYER_1
 10
88.64317408008039
 20
-172.5172090307671
 30
0.0
  0
VERTEX
  5
4B0
  8
LAYER_1
 10
88.74207601348762
 20
-172.884325919836
 30
0.0
  0
VERTEX
  5
4B1
  8
LAYER_1
 10
88.8513297758512
 20
-173.23866622722
 30
0.0
  0
VERTEX
  5
4B2
  8
LAYER_1
 10
88.97093536717111
 20
-173.5802299529192
 30
0.0
  0
VERTEX
  5
4B3
  8
LAYER_1
 10
89.10089278744738
 20
-173.9090170969335
 30
0.0
  0
VERTEX
  5
4B4
  8
LAYER_1
 10
89.24120203667998
 20
-174.225027659263
 30
0.0
  0
VERTEX
  5
4B5
  8
LAYER_1
 10
89.39186311486894
 20
-174.5282616399076
 30
0.0
  0
VERTEX
  5
4B6
  8
LAYER_1
 10
89.55287602201422
 20
-174.8187190388674
 30
0.0
  0
VERTEX
  5
4B7
  8
LAYER_1
 10
89.72424075811585
 20
-175.0963998561422
 30
0.0
  0
VERTEX
  5
4B8
  8
LAYER_1
 10
89.90595732317384
 20
-175.3613040917323
 30
0.0
  0
VERTEX
  5
4B9
  8
LAYER_1
 10
90.09802571718816
 20
-175.6134317456375
 30
0.0
  0
VERTEX
  5
4BA
  8
LAYER_1
 10
90.30044594015884
 20
-175.8527828178578
 30
0.0
  0
VERTEX
  5
4BB
  8
LAYER_1
 10
90.51321799208586
 20
-176.0793573083933
 30
0.0
  0
VERTEX
  5
4BC
  8
LAYER_1
 10
90.7363418729692
 20
-176.2931552172439
 30
0.0
  0
VERTEX
  5
4BD
  8
LAYER_1
 10
90.96757934952105
 20
-176.4940832846893
 30
0.0
  0
VERTEX
  5
4BE
  8
LAYER_1
 10
91.20469218845352
 20
-176.6820482510092
 30
0.0
  0
VERTEX
  5
4BF
  8
LAYER_1
 10
91.44768038976662
 20
-176.8570501162037
 30
0.0
  0
VERTEX
  5
4C0
  8
LAYER_1
 10
91.69654395346033
 20
-177.0190888802725
 30
0.0
  0
VERTEX
  5
4C1
  8
LAYER_1
 10
91.95128287953469
 20
-177.1681645432159
 30
0.0
  0
VERTEX
  5
4C2
  8
LAYER_1
 10
92.21189716798968
 20
-177.3042771050338
 30
0.0
  0
VERTEX
  5
4C3
  8
LAYER_1
 10
92.47838681882529
 20
-177.4274265657261
 30
0.0
  0
VERTEX
  5
4C4
  8
LAYER_1
 10
92.75075183204152
 20
-177.537612925293
 30
0.0
  0
VERTEX
  5
4C5
  8
LAYER_1
 10
93.02899220763838
 20
-177.6348361837344
 30
0.0
  0
VERTEX
  5
4C6
  8
LAYER_1
 10
93.31310794561587
 20
-177.7190963410502
 30
0.0
  0
VERTEX
  5
4C7
  8
LAYER_1
 10
93.60309904597398
 20
-177.7903933972405
 30
0.0
  0
VERTEX
  5
4C8
  8
LAYER_1
 10
93.89896550871272
 20
-177.8487273523053
 30
0.0
  0
VERTEX
  5
4C9
  8
LAYER_1
 10
94.2007073338321
 20
-177.8940982062446
 30
0.0
  0
VERTEX
  5
4CA
  8
LAYER_1
 10
94.5083245213321
 20
-177.9265059590584
 30
0.0
  0
VERTEX
  5
4CB
  8
LAYER_1
 10
94.82181707121272
 20
-177.9459506107466
 30
0.0
  0
VERTEX
  5
4CC
  8
LAYER_1
 10
95.14118498347398
 20
-177.9524321613094
 30
0.0
  0
VERTEX
  5
4CD
  8
LAYER_1
 10
95.52541503122295
 20
-177.9432927087173
 30
0.0
  0
VERTEX
  5
4CE
  8
LAYER_1
 10
95.90218430134573
 20
-177.915874350941
 30
0.0
  0
VERTEX
  5
4CF
  8
LAYER_1
 10
96.2714927938423
 20
-177.8701770879806
 30
0.0
  0
VERTEX
  5
4D0
  8
LAYER_1
 10
96.6333405087127
 20
-177.806200919836
 30
0.0
  0
VERTEX
  5
4D1
  8
LAYER_1
 10
96.98772744595689
 20
-177.7239458465072
 30
0.0
  0
VERTEX
  5
4D2
  8
LAYER_1
 10
97.33465360557491
 20
-177.6234118679942
 30
0.0
  0
VERTEX
  5
4D3
  8
LAYER_1
 10
97.67411898756674
 20
-177.5045989842971
 30
0.0
  0
VERTEX
  5
4D4
  8
LAYER_1
 10
98.00612359193238
 20
-177.3675071954158
 30
0.0
  0
VERTEX
  5
4D5
  8
LAYER_1
 10
98.3306674186718
 20
-177.2121365013503
 30
0.0
  0
VERTEX
  5
4D6
  8
LAYER_1
 10
98.64775046778502
 20
-177.0384869021007
 30
0.0
  0
VERTEX
  5
4D7
  8
LAYER_1
 10
98.95737273927205
 20
-176.8465583976669
 30
0.0
  0
VERTEX
  5
4D8
  8
LAYER_1
 10
99.25953423313291
 20
-176.6363509880488
 30
0.0
  0
VERTEX
  5
4D9
  8
LAYER_1
 10
99.55423494936755
 20
-176.4078646732466
 30
0.0
  0
VERTEX
  5
4DA
  8
LAYER_1
 10
99.841474887976
 20
-176.1610994532603
 30
0.0
  0
VERTEX
  5
4DB
  8
LAYER_1
 10
100.1212540489583
 20
-175.8960553280897
 30
0.0
  0
VERTEX
  5
4DC
  8
LAYER_1
 10
100.3935724323144
 20
-175.6127322977351
 30
0.0
  0
VERTEX
  5
4DD
  8
LAYER_1
 10
100.6537670520279
 20
-175.3143011926873
 30
0.0
  0
VERTEX
  5
4DE
  8
LAYER_1
 10
100.8971749220824
 20
-175.0039328434376
 30
0.0
  0
VERTEX
  5
4DF
  8
LAYER_1
 10
101.1237960424781
 20
-174.6816272499861
 30
0.0
  0
VERTEX
  5
4E0
  8
LAYER_1
 10
101.3336304132148
 20
-174.3473844123326
 30
0.0
  0
VERTEX
  5
4E1
  8
LAYER_1
 10
101.5266780342925
 20
-174.0012043304772
 30
0.0
  0
VERTEX
  5
4E2
  8
LAYER_1
 10
101.7029389057113
 20
-173.6430870044199
 30
0.0
  0
VERTEX
  5
4E3
  8
LAYER_1
 10
101.8624130274712
 20
-173.2730324341607
 30
0.0
  0
VERTEX
  5
4E4
  8
LAYER_1
 10
102.0051003995722
 20
-172.8910406196996
 30
0.0
  0
VERTEX
  5
4E5
  8
LAYER_1
 10
102.1310010220142
 20
-172.4971115610365
 30
0.0
  0
VERTEX
  5
4E6
  8
LAYER_1
 10
102.2401148947973
 20
-172.0912452581716
 30
0.0
  0
VERTEX
  5
4E7
  8
LAYER_1
 10
102.3324420179215
 20
-171.6734417111047
 30
0.0
  0
VERTEX
  5
4E8
  8
LAYER_1
 10
102.4079823913867
 20
-171.243700919836
 30
0.0
  0
VERTEX
  5
4E9
  8
LAYER_1
 10
102.4667360151929
 20
-170.8020228843653
 30
0.0
  0
VERTEX
  5
4EA
  8
LAYER_1
 10
102.5087028893403
 20
-170.3484076046927
 30
0.0
  0
VERTEX
  5
4EB
  8
LAYER_1
 10
102.5338830138287
 20
-169.8828550808182
 30
0.0
  0
VERTEX
  5
4EC
  8
LAYER_1
 10
102.5422763886582
 20
-169.4053653127418
 30
0.0
  0
VERTEX
  5
4ED
  8
LAYER_1
 10
102.5342094228498
 20
-168.9518432927896
 30
0.0
  0
VERTEX
  5
4EE
  8
LAYER_1
 10
102.5100085254249
 20
-168.51044503648
 30
0.0
  0
VERTEX
  5
4EF
  8
LAYER_1
 10
102.4696736963832
 20
-168.0811705438128
 30
0.0
  0
VERTEX
  5
4F0
  8
LAYER_1
 10
102.413204935725
 20
-167.6640198147883
 30
0.0
  0
VERTEX
  5
4F1
  8
LAYER_1
 10
102.3406022434501
 20
-167.2589928494063
 30
0.0
  0
VERTEX
  5
4F2
  8
LAYER_1
 10
102.2518656195586
 20
-166.8660896476669
 30
0.0
  0
VERTEX
  5
4F3
  8
LAYER_1
 10
102.1469950640504
 20
-166.48531020957
 30
0.0
  0
VERTEX
  5
4F4
  8
LAYER_1
 10
102.0259905769256
 20
-166.1166545351157
 30
0.0
  0
VERTEX
  5
4F5
  8
LAYER_1
 10
101.8888521581841
 20
-165.760122624304
 30
0.0
  0
VERTEX
  5
4F6
  8
LAYER_1
 10
101.735579807826
 20
-165.4157144771348
 30
0.0
  0
VERTEX
  5
4F7
  8
LAYER_1
 10
101.5661735258512
 20
-165.0834300936082
 30
0.0
  0
VERTEX
  5
4F8
  8
LAYER_1
 10
101.3806333122598
 20
-164.7632694737241
 30
0.0
  0
VERTEX
  5
4F9
  8
LAYER_1
 10
101.1789591670517
 20
-164.4552326174826
 30
0.0
  0
VERTEX
  5
4FA
  8
LAYER_1
 10
100.961151090227
 20
-164.1593195248838
 30
0.0
  0
VERTEX
  5
4FB
  8
LAYER_1
 10
100.7272090817857
 20
-163.8755301959274
 30
0.0
  0
VERTEX
  5
4FC
  8
LAYER_1
 10
100.4771331417277
 20
-163.6038646306136
 30
0.0
  0
VERTEX
  5
4FD
  8
LAYER_1
 10
100.2140008408239
 20
-163.3465610622303
 30
0.0
  0
VERTEX
  5
4FE
  8
LAYER_1
 10
99.94088974984507
 20
-163.1058577240652
 30
0.0
  0
VERTEX
  5
4FF
  8
LAYER_1
 10
99.65779986879117
 20
-162.8817546161184
 30
0.0
  0
VERTEX
  5
500
  8
LAYER_1
 10
99.36473119766225
 20
-162.6742517383899
 30
0.0
  0
VERTEX
  5
501
  8
LAYER_1
 10
99.06168373645828
 20
-162.4833490908796
 30
0.0
  0
VERTEX
  5
502
  8
LAYER_1
 10
98.7486574851793
 20
-162.3090466735877
 30
0.0
  0
VERTEX
  5
503
  8
LAYER_1
 10
98.42565244382527
 20
-162.151344486514
 30
0.0
  0
VERTEX
  5
504
  8
LAYER_1
 10
98.09266861239622
 20
-162.0102425296586
 30
0.0
  0
VERTEX
  5
505
  8
LAYER_1
 10
97.74970599089212
 20
-161.8857408030215
 30
0.0
  0
VERTEX
  5
506
  8
LAYER_1
 10
97.39676457931301
 20
-161.7778393066027
 30
0.0
  0
VERTEX
  5
507
  8
LAYER_1
 10
97.03384437765885
 20
-161.6865380404022
 30
0.0
  0
VERTEX
  5
508
  8
LAYER_1
 10
96.66094538592965
 20
-161.6118370044199
 30
0.0
  0
VERTEX
  5
509
  8
LAYER_1
 10
96.27806760412543
 20
-161.5537361986559
 30
0.0
  0
VERTEX
  5
50A
  8
LAYER_1
 10
95.88521103224616
 20
-161.5122356231102
 30
0.0
  0
VERTEX
  5
50B
  8
LAYER_1
 10
95.48237567029184
 20
-161.4873352777828
 30
0.0
  0
VERTEX
  5
50C
  8
LAYER_1
 10
95.06956151826252
 20
-161.4790351626737
 30
0.0
  0
VERTEX
  5
50D
  8
LAYER_1
 10
94.5566330564617
 20
-161.4937701984854
 30
0.0
  0
VERTEX
  5
50E
  8
LAYER_1
 10
94.304925071298
 20
-161.51218899325
 30
0.0
  0
VERTEX
  5
50F
  8
LAYER_1
 10
94.05638791662543
 20
-161.5379753059206
 30
0.0
  0
VERTEX
  5
510
  8
LAYER_1
 10
93.81102159244398
 20
-161.571129136497
 30
0.0
  0
VERTEX
  5
511
  8
LAYER_1
 10
93.56882609875368
 20
-161.6116504849792
 30
0.0
  0
VERTEX
  5
512
  8
LAYER_1
 10
93.32980143555449
 20
-161.6595393513674
 30
0.0
  0
VERTEX
  5
513
  8
LAYER_1
 10
93.09394760284644
 20
-161.7147957356614
 30
0.0
  0
VERTEX
  5
514
  8
LAYER_1
 10
92.86126460062953
 20
-161.7774196378612
 30
0.0
  0
VERTEX
  5
515
  8
LAYER_1
 10
92.63175242890375
 20
-161.847411057967
 30
0.0
  0
VERTEX
  5
516
  8
LAYER_1
 10
92.4054110876691
 20
-161.9247699959786
 30
0.0
  0
VERTEX
  5
517
  8
LAYER_1
 10
92.18224057692557
 20
-162.009496451896
 30
0.0
  0
VERTEX
  5
518
  8
LAYER_1
 10
91.96224089667317
 20
-162.1015904257193
 30
0.0
  0
VERTEX
  5
519
  8
LAYER_1
 10
91.74541204691192
 20
-162.2010519174485
 30
0.0
  0
VERTEX
  5
51A
  8
LAYER_1
 10
91.5317540276418
 20
-162.3078809270836
 30
0.0
  0
VERTEX
  5
51B
  8
LAYER_1
 10
91.3212668388628
 20
-162.4220774546245
 30
0.0
  0
VERTEX
  5
51C
  8
LAYER_1
 10
90.91465445823523
 20
-162.666604441323
 30
0.0
  0
VERTEX
  5
51D
  8
LAYER_1
 10
90.53042441048625
 20
-162.9286642554431
 30
0.0
  0
VERTEX
  5
51E
  8
LAYER_1
 10
90.16857669561585
 20
-163.2082568969847
 30
0.0
  0
VERTEX
  5
51F
  8
LAYER_1
 10
89.82911131362404
 20
-163.5053823659479
 30
0.0
  0
VERTEX
  5
520
  8
LAYER_1
 10
89.5120282645108
 20
-163.8200406623326
 30
0.0
  0
VERTEX
  5
521
  8
LAYER_1
 10
89.21732754827616
 20
-164.1522317861389
 30
0.0
  0
VERTEX
  5
522
  8
LAYER_1
 10
88.9450091649201
 20
-164.5019557373667
 30
0.0
  0
VERTEX
  5
523
  8
LAYER_1
 10
88.69507311444261
 20
-164.8692125160161
 30
0.0
  0
VERTEX
  5
524
  8
LAYER_1
 10
84.66028457419704
 20
-164.343973771132
 30
0.0
  0
VERTEX
  5
525
  8
LAYER_1
 10
88.05046192753947
 20
-146.3664840030556
 30
0.0
  0
VERTEX
  5
526
  8
LAYER_1
 10
105.4549639739242
 20
-146.3664840030556
 30
0.0
  0
VERTEX
  5
527
  8
LAYER_1
 10
105.4549639739242
 20
-150.4728960085127
 30
0.0
  0
VERTEX
  5
528
  8
LAYER_1
 10
91.48838825768954
 20
-150.4728960085127
 30
0.0
  0
VERTEX
  5
529
  8
LAYER_1
 10
89.60230367378776
 20
-159.8794444396177
 30
0.0
  0
VERTEX
  5
52A
  8
LAYER_1
 10
89.99744510881504
 20
-159.6134677172439
 30
0.0
  0
VERTEX
  5
52B
  8
LAYER_1
 10
90.39501129657083
 20
-159.3646507834104
 30
0.0
  0
VERTEX
  5
52C
  8
LAYER_1
 10
90.79500223705514
 20
-159.132993638117
 30
0.0
  0
VERTEX
  5
52D
  8
LAYER_1
 10
91.19741793026797
 20
-158.918496281364
 30
0.0
  0
VERTEX
  5
52E
  8
LAYER_1
 10
91.6022583762093
 20
-158.7211587131511
 30
0.0
  0
VERTEX
  5
52F
  8
LAYER_1
 10
92.00952357487915
 20
-158.5409809334786
 30
0.0
  0
VERTEX
  5
530
  8
LAYER_1
 10
92.41921352627753
 20
-158.3779629423462
 30
0.0
  0
VERTEX
  5
531
  8
LAYER_1
 10
92.83132823040441
 20
-158.2321047397541
 30
0.0
  0
VERTEX
  5
532
  8
LAYER_1
 10
93.2458676872598
 20
-158.1034063257023
 30
0.0
  0
VERTEX
  5
533
  8
LAYER_1
 10
93.6628318968437
 20
-157.9918677001907
 30
0.0
  0
VERTEX
  5
534
  8
LAYER_1
 10
94.08222085915611
 20
-157.8974888632193
 30
0.0
  0
VERTEX
  5
535
  8
LAYER_1
 10
94.50403457419704
 20
-157.8202698147882
 30
0.0
  0
VERTEX
  5
536
  8
LAYER_1
 10
94.92827304196648
 20
-157.7602105548974
 30
0.0
  0
VERTEX
  5
537
  8
LAYER_1
 10
95.35493626246442
 20
-157.7173110835467
 30
0.0
  0
VERTEX
  5
538
  8
LAYER_1
 10
95.7840242356909
 20
-157.6915714007364
 30
0.0
  0
VERTEX
  5
539
  8
LAYER_1
 10
96.21553696164588
 20
-157.6829915064663
 30
0.0
  0
VERTEX
  5
53A
  8
LAYER_1
 10
96.78292910011791
 20
-157.6953950492698
 30
0.0
  0
VERTEX
  5
53B
  8
LAYER_1
 10
97.33913007215065
 20
-157.7326056776805
 30
0.0
  0
VERTEX
  5
53C
  8
LAYER_1
 10
97.8841398777441
 20
-157.7946233916982
 30
0.0
  0
VERTEX
  5
53D
  8
LAYER_1
 10
98.41795851689827
 20
-157.881448191323
 30
0.0
  0
VERTEX
  5
53E
  8
LAYER_1
 10
98.94058598961314
 20
-157.9930800765549
 30
0.0
  0
VERTEX
  5
53F
  8
LAYER_1
 10
99.45202229588872
 20
-158.129519047394
 30
0.0
  0
VERTEX
  5
540
  8
LAYER_1
 10
99.95226743572499
 20
-158.29076510384
 30
0.0
  0
VERTEX
  5
541
  8
LAYER_1
 10
100.441321409122
 20
-158.4768182458933
 30
0.0
  0
VERTEX
  5
542
  8
LAYER_1
 10
100.9191842160797
 20
-158.6876784735535
 30
0.0
  0
VERTEX
  5
543
  8
LAYER_1
 10
101.3858558565981
 20
-158.923345786821
 30
0.0
  0
VERTEX
  5
544
  8
LAYER_1
 10
101.8413363306773
 20
-159.1838201856955
 30
0.0
  0
VERTEX
  5
545
  8
LAYER_1
 10
102.2856256383171
 20
-159.4691016701771
 30
0.0
  0
VERTEX
  5
546
  8
LAYER_1
 10
102.7187237795176
 20
-159.7791902402657
 30
0.0
  0
VERTEX
  5
547
  8
LAYER_1
 10
103.1406307542789
 20
-160.1140858959615
 30
0.0
  0
VERTEX
  5
548
  8
LAYER_1
 10
103.5513465626009
 20
-160.4737886372643
 30
0.0
  0
VERTEX
  5
549
  8
LAYER_1
 10
103.9508712044835
 20
-160.8582984641743
 30
0.0
  0
VERTEX
  5
54A
  8
LAYER_1
 10
104.3324899800633
 20
-161.2622995726327
 30
0.0
  0
VERTEX
  5
54B
  8
LAYER_1
 10
104.6894881894767
 20
-161.6804761585809
 30
0.0
  0
VERTEX
  5
54C
  8
LAYER_1
 10
105.0218658327236
 20
-162.1128282220188
 30
0.0
  0
VERTEX
  5
54D
  8
LAYER_1
 10
105.3296229098041
 20
-162.5593557629465
 30
0.0
  0
VERTEX
  5
54E
  8
LAYER_1
 10
105.6127594207182
 20
-163.020058781364
 30
0.0
  0
VERTEX
  5
54F
  8
LAYER_1
 10
105.8712753654658
 20
-163.4949372772712
 30
0.0
  0
VERTEX
  5
550
  8
LAYER_1
 10
106.105170744047
 20
-163.9839912506682
 30
0.0
  0
VERTEX
  5
551
  8
LAYER_1
 10
106.3144455564617
 20
-164.4872207015549
 30
0.0
  0
VERTEX
  5
552
  8
LAYER_1
 10
106.49909980271
 20
-165.0046256299315
 30
0.0
  0
VERTEX
  5
553
  8
LAYER_1
 10
106.6591334827918
 20
-165.5362060357978
 30
0.0
  0
VERTEX
  5
554
  8
LAYER_1
 10
106.7945465967072
 20
-166.0819619191539
 30
0.0
  0
VERTEX
  5
555
  8
LAYER_1
 10
106.9053391444562
 20
-166.6418932799997
 30
0.0
  0
VERTEX
  5
556
  8
LAYER_1
 10
106.9915111260388
 20
-167.2160001183354
 30
0.0
  0
VERTEX
  5
557
  8
LAYER_1
 10
107.0530625414549
 20
-167.8042824341607
 30
0.0
  0
VERTEX
  5
558
  8
LAYER_1
 10
107.0899933907045
 20
-168.4067402274759
 30
0.0
  0
VERTEX
  5
559
  8
LAYER_1
 10
107.1023036737878
 20
-169.0233734982807
 30
0.0
  0
VERTEX
  5
55A
  8
LAYER_1
 10
107.0914855462298
 20
-169.6122153724281
 30
0.0
  0
VERTEX
  5
55B
  8
LAYER_1
 10
107.0590311635558
 20
-170.19098519678
 30
0.0
  0
VERTEX
  5
55C
  8
LAYER_1
 10
107.0049405257659
 20
-170.7596829713367
 30
0.0
  0
VERTEX
  5
55D
  8
LAYER_1
 10
106.9292136328601
 20
-171.3183086960979
 30
0.0
  0
VERTEX
  5
55E
  8
LAYER_1
 10
106.8318504848382
 20
-171.8668623710638
 30
0.0
  0
VERTEX
  5
55F
  8
LAYER_1
 10
106.7128510817004
 20
-172.4053439962344
 30
0.0
  0
VERTEX
  5
560
  8
LAYER_1
 10
106.5722154234467
 20
-172.9337535716095
 30
0.0
  0
VERTEX
  5
561
  8
LAYER_1
 10
106.409943510077
 20
-173.4520910971893
 30
0.0
  0
VERTEX
  5
562
  8
LAYER_1
 10
106.2260353415913
 20
-173.9603565729738
 30
0.0
  0
VERTEX
  5
563
  8
LAYER_1
 10
106.0204909179897
 20
-174.4585499989629
 30
0.0
  0
VERTEX
  5
564
  8
LAYER_1
 10
105.7933102392721
 20
-174.9466713751566
 30
0.0
  0
VERTEX
  5
565
  8
LAYER_1
 10
105.5444933054385
 20
-175.424720701555
 30
0.0
  0
VERTEX
  5
566
  8
LAYER_1
 10
105.274040116489
 20
-175.892697978158
 30
0.0
  0
VERTEX
  5
567
  8
LAYER_1
 10
104.9819506724235
 20
-176.3506032049656
 30
0.0
  0
VERTEX
  5
568
  8
LAYER_1
 10
104.6682249732421
 20
-176.7984363819779
 30
0.0
  0
VERTEX
  5
569
  8
LAYER_1
 10
104.3328630189446
 20
-177.2361975091948
 30
0.0
  0
VERTEX
  5
56A
  8
LAYER_1
 10
104.1200676520876
 20
-177.4976511351327
 30
0.0
  0
VERTEX
  5
56B
  8
LAYER_1
 10
103.9024694096336
 20
-177.7508046459615
 30
0.0
  0
VERTEX
  5
56C
  8
LAYER_1
 10
103.6800682915828
 20
-177.9956580416811
 30
0.0
  0
VERTEX
  5
56D
  8
LAYER_1
 10
103.4528642979351
 20
-178.2322113222916
 30
0.0
  0
VERTEX
  5
56E
  8
LAYER_1
 10
103.2208574286906
 20
-178.460464487793
 30
0.0
  0
VERTEX
  5
56F
  8
LAYER_1
 10
102.9840476838492
 20
-178.6804175381852
 30
0.0
  0
VERTEX
  5
570
  8
LAYER_1
 10
102.7424350634109
 20
-178.8920704734683
 30
0.0
  0
VERTEX
  5
571
  8
LAYER_1
 10
102.4960195673758
 20
-179.0954232936423
 30
0.0
  0
VERTEX
  5
572
  8
LAYER_1
 10
102.2448011957438
 20
-179.2904759987071
 30
0.0
  0
VERTEX
  5
573
  8
LAYER_1
 10
101.9887799485149
 20
-179.4772285886627
 30
0.0
  0
VERTEX
  5
574
  8
LAYER_1
 10
101.7279558256892
 20
-179.6556810635093
 30
0.0
  0
VERTEX
  5
575
  8
LAYER_1
 10
101.4623288272666
 20
-179.8258334232466
 30
0.0
  0
VERTEX
  5
576
  8
LAYER_1
 10
101.1918989532472
 20
-179.9876856678749
 30
0.0
  0
VERTEX
  5
577
  8
LAYER_1
 10
100.9166662036309
 20
-180.141237797394
 30
0.0
  0
VERTEX
  5
578
  8
LAYER_1
 10
100.6366305784177
 20
-180.286489811804
 30
0.0
  0
VERTEX
  5
579
  8
LAYER_1
 10
100.3517920776077
 20
-180.4234417111048
 30
0.0
  0
VERTEX
  5
57A
  8
LAYER_1
 10
100.0621507012008
 20
-180.5520934952964
 30
0.0
  0
VERTEX
  5
57B
  8
LAYER_1
 10
99.76770644919704
 20
-180.672445164379
 30
0.0
  0
VERTEX
  5
57C
  8
LAYER_1
 10
99.46845932159643
 20
-180.7844967183524
 30
0.0
  0
VERTEX
  5
57D
  8
LAYER_1
 10
99.16440931839895
 20
-180.8882481572167
 30
0.0
  0
VERTEX
  5
57E
  8
LAYER_1
 10
98.85555643960461
 20
-180.9836994809718
 30
0.0
  0
VERTEX
  5
57F
  8
LAYER_1
 10
98.5419006852134
 20
-181.0708506896177
 30
0.0
  0
VERTEX
  5
580
  8
LAYER_1
 10
98.22344205522535
 20
-181.1497017831546
 30
0.0
  0
VERTEX
  5
581
  8
LAYER_1
 10
97.90018054964042
 20
-181.2202527615823
 30
0.0
  0
VERTEX
  5
582
  8
LAYER_1
 10
97.57211616845863
 20
-181.2825036249008
 30
0.0
  0
VERTEX
  5
583
  8
LAYER_1
 10
97.23924891167998
 20
-181.3364543731102
 30
0.0
  0
VERTEX
  5
584
  8
LAYER_1
 10
96.90157877930447
 20
-181.3821050062105
 30
0.0
  0
VERTEX
  5
585
  8
LAYER_1
 10
96.5591057713321
 20
-181.4194555242016
 30
0.0
  0
VERTEX
  5
586
  8
LAYER_1
 10
96.21182988776286
 20
-181.4485059270836
 30
0.0
  0
VERTEX
  5
587
  8
LAYER_1
 10
95.85975112859676
 20
-181.4692562148564
 30
0.0
  0
VERTEX
  5
588
  8
LAYER_1
 10
95.5028694938338
 20
-181.4817063875201
 30
0.0
  0
VERTEX
  5
589
  8
LAYER_1
 10
95.14118498347398
 20
-181.4858564450747
 30
0.0
  0
VERTEX
  5
58A
  8
LAYER_1
 10
94.55117736282254
 20
-181.4754113563981
 30
0.0
  0
VERTEX
  5
58B
  8
LAYER_1
 10
93.97487892105923
 20
-181.4440760903681
 30
0.0
  0
VERTEX
  5
58C
  8
LAYER_1
 10
93.41228965818405
 20
-181.3918506469847
 30
0.0
  0
VERTEX
  5
58D
  8
LAYER_1
 10
92.86340957419702
 20
-181.318735026248
 30
0.0
  0
VERTEX
  5
58E
  8
LAYER_1
 10
92.32823866909811
 20
-181.2247292281579
 30
0.0
  0
VERTEX
  5
58F
  8
LAYER_1
 10
91.80677694288734
 20
-181.1098332527146
 30
0.0
  0
VERTEX
  5
590
  8
LAYER_1
 10
91.2990243955647
 20
-180.9740470999178
 30
0.0
  0
VERTEX
  5
591
  8
LAYER_1
 10
90.80498102713018
 20
-180.8173707697678
 30
0.0
  0
VERTEX
  5
592
  8
LAYER_1
 10
90.32464683758378
 20
-180.6398042622644
 30
0.0
  0
VERTEX
  5
593
  8
LAYER_1
 10
89.85802182692554
 20
-180.4413475774076
 30
0.0
  0
VERTEX
  5
594
  8
LAYER_1
 10
89.40510599515542
 20
-180.2220007151975
 30
0.0
  0
VERTEX
  5
595
  8
LAYER_1
 10
88.96589934227343
 20
-179.9817636756341
 30
0.0
  0
VERTEX
  5
596
  8
LAYER_1
 10
88.54040186827956
 20
-179.7206364587173
 30
0.0
  0
VERTEX
  5
597
  8
LAYER_1
 10
88.12861357317382
 20
-179.4386190644472
 30
0.0
  0
VERTEX
  5
598
  8
LAYER_1
 10
87.73053445695624
 20
-179.1357114928237
 30
0.0
  0
VERTEX
  5
599
  8
LAYER_1
 10
87.34616451962677
 20
-178.8119137438469
 30
0.0
  0
VERTEX
  5
59A
  8
LAYER_1
 10
86.9787678513969
 20
-178.4708629466095
 30
0.0
  0
VERTEX
  5
59B
  8
LAYER_1
 10
86.63160854247806
 20
-178.1161962302044
 30
0.0
  0
VERTEX
  5
59C
  8
LAYER_1
 10
86.30468659287027
 20
-177.7479135946314
 30
0.0
  0
VERTEX
  5
59D
  8
LAYER_1
 10
85.99800200257356
 20
-177.3660150398906
 30
0.0
  0
VERTEX
  5
59E
  8
LAYER_1
 10
85.7115547715879
 20
-176.970500565982
 30
0.0
  0
VERTEX
  5
59F
  8
LAYER_1
 10
85.44534489991327
 20
-176.5613701729056
 30
0.0
  0
VERTEX
  5
5A0
  8
LAYER_1
 10
85.19937238754969
 20
-176.1386238606614
 30
0.0
  0
VERTEX
  5
5A1
  8
LAYER_1
 10
84.97363723449718
 20
-175.7022616292494
 30
0.0
  0
VERTEX
  5
5A2
  8
LAYER_1
 10
84.7681394407557
 20
-175.2522834786696
 30
0.0
  0
VERTEX
  5
5A3
  8
LAYER_1
 10
84.58287900632529
 20
-174.788689408922
 30
0.0
  0
VERTEX
  5
5A4
  8
LAYER_1
 10
84.4178559312059
 20
-174.3114794200065
 30
0.0
  0
VERTEX
  5
5A5
  8
LAYER_1
 10
84.27307021539758
 20
-173.8206535119233
 30
0.0
  0
VERTEX
  5
5A6
  8
LAYER_1
 10
84.14852185890032
 20
-173.3162116846723
 30
0.0
  0
VERTEX
  5
5A7
  8
LAYER_1
 10
84.04421086171409
 20
-172.7981539382534
 30
0.0
  0
VERTEX
  5
5A8
  8
LAYER_1
 10
83.96013722383893
 20
-172.2664802726669
 30
0.0
  0
SEQEND
  5
E9E
  8
LAYER_1
  0
POLYLINE
  5
79
  8
LAYER_1
 66
     1
 10
0.0
 20
0.0
 30
0.0
 70
     1
  0
VERTEX
  5
5A9
  8
LAYER_1
 10
10.93451568894955
 20
-180.5457025920873
 30
0.0
  0
VERTEX
  5
5AA
  8
LAYER_1
 10
6.660982264665781
 20
-180.8799454297408
 30
0.0
  0
VERTEX
  5
5AB
  8
LAYER_1
 10
6.510274556616667
 20
-180.2689077421555
 30
0.0
  0
VERTEX
  5
5AC
  8
LAYER_1
 10
6.344645293315168
 20
-179.7011425648022
 30
0.0
  0
VERTEX
  5
5AD
  8
LAYER_1
 10
6.16409447476128
 20
-179.1766498976807
 30
0.0
  0
VERTEX
  5
5AE
  8
LAYER_1
 10
6.068223482264692
 20
-178.930630755457
 30
0.0
  0
VERTEX
  5
5AF
  8
LAYER_1
 10
5.968622100955005
 20
-178.6954297407912
 30
0.0
  0
VERTEX
  5
5B0
  8
LAYER_1
 10
5.865290330832222
 20
-178.4710468536834
 30
0.0
  0
VERTEX
  5
5B1
  8
LAYER_1
 10
5.758228171896342
 20
-178.2574820941336
 30
0.0
  0
VERTEX
  5
5B2
  8
LAYER_1
 10
5.647435624147366
 20
-178.0547354621419
 30
0.0
  0
VERTEX
  5
5B3
  8
LAYER_1
 10
5.532912687585292
 20
-177.862806957708
 30
0.0
  0
VERTEX
  5
5B4
  8
LAYER_1
 10
5.414659362210122
 20
-177.6816965808322
 30
0.0
  0
VERTEX
  5
5B5
  8
LAYER_1
 10
5.292675648021854
 20
-177.5114043315143
 30
0.0
  0
VERTEX
  5
5B6
  8
LAYER_1
 10
5.16696154502049
 20
-177.3519302097544
 30
0.0
  0
VERTEX
  5
5B7
  8
LAYER_1
 10
5.037517053206029
 20
-177.2032742155525
 30
0.0
  0
VERTEX
  5
5B8
  8
LAYER_1
 10
4.816491516030039
 20
-176.9806632631309
 30
0.0
  0
VERTEX
  5
5B9
  8
LAYER_1
 10
4.589124317871786
 20
-176.7724143076398
 30
0.0
  0
VERTEX
  5
5BA
  8
LAYER_1
 10
4.355415458731267
 20
-176.5785273490791
 30
0.0
  0
VERTEX
  5
5BB
  8
LAYER_1
 10
4.115364938608485
 20
-176.3990023874488
 30
0.0
  0
VERTEX
  5
5BC
  8
LAYER_1
 10
3.868972757503437
 20
-176.2338394227489
 30
0.0
  0
VERTEX
  5
5BD
  8
LAYER_1
 10
3.616238915416124
 20
-176.0830384549795
 30
0.0
  0
VERTEX
  5
5BE
  8
LAYER_1
 10
3.357163412346547
 20
-175.9465994841405
 30
0.0
  0
VERTEX
  5
5BF
  8
LAYER_1
 10
3.091746248294705
 20
-175.8245225102319
 30
0.0
  0
VERTEX
  5
5C0
  8
LAYER_1
 10
2.819987423260599
 20
-175.7168075332537
 30
0.0
  0
VERTEX
  5
5C1
  8
LAYER_1
 10
2.541886937244228
 20
-175.623454553206
 30
0.0
  0
VERTEX
  5
5C2
  8
LAYER_1
 10
2.257444790245592
 20
-175.5444635700886
 30
0.0
  0
VERTEX
  5
5C3
  8
LAYER_1
 10
1.966660982264691
 20
-175.4798345839017
 30
0.0
  0
VERTEX
  5
5C4
  8
LAYER_1
 10
1.669535513301526
 20
-175.4295675946453
 30
0.0
  0
VERTEX
  5
5C5
  8
LAYER_1
 10
1.366068383356096
 20
-175.3936626023192
 30
0.0
  0
VERTEX
  5
5C6
  8
LAYER_1
 10
1.056259592428402
 20
-175.3721196069236
 30
0.0
  0
VERTEX
  5
5C7
  8
LAYER_1
 10
0.7401091405184427
 20
-175.3649386084584
 30
0.0
  0
VERTEX
  5
5C8
  8
LAYER_1
 10
0.4854168443042541
 20
-175.3694150750341
 30
0.0
  0
VERTEX
  5
5C9
  8
LAYER_1
 10
0.2346414563438174
 20
-175.3828444747612
 30
0.0
  0
VERTEX
  5
5CA
  8
LAYER_1
 10
-0.0122170233628676
 20
-175.4052268076398
 30
0.0
  0
VERTEX
  5
5CB
  8
LAYER_1
 10
-0.2551585948158009
 20
-175.4365620736698
 30
0.0
  0
VERTEX
  5
5CC
  8
LAYER_1
 10
-0.4941832580149825
 20
-175.4768502728513
 30
0.0
  0
VERTEX
  5
5CD
  8
LAYER_1
 10
-0.7292910129604124
 20
-175.5260914051842
 30
0.0
  0
VERTEX
  5
5CE
  8
LAYER_1
 10
-0.9604818596520904
 20
-175.5842854706685
 30
0.0
  0
VERTEX
  5
5CF
  8
LAYER_1
 10
-1.187755798090017
 20
-175.6514324693042
 30
0.0
  0
VERTEX
  5
5D0
  8
LAYER_1
 10
-1.411112828274192
 20
-175.7275324010914
 30
0.0
  0
VERTEX
  5
5D1
  8
LAYER_1
 10
-1.630552950204614
 20
-175.81258526603
 30
0.0
  0
VERTEX
  5
5D2
  8
LAYER_1
 10
-1.846076163881286
 20
-175.90659106412
 30
0.0
  0
VERTEX
  5
5D3
  8
LAYER_1
 10
-2.057682469304205
 20
-176.0095497953615
 30
0.0
  0
VERTEX
  5
5D4
  8
LAYER_1
 10
-2.265371866473373
 20
-176.1214614597544
 30
0.0
  0
VERTEX
  5
5D5
  8
LAYER_1
 10
-2.469144355388789
 20
-176.2423260572988
 30
0.0
  0
VERTEX
  5
5D6
  8
LAYER_1
 10
-2.668999936050453
 20
-176.3721435879945
 30
0.0
  0
VERTEX
  5
5D7
  8
LAYER_1
 10
-2.864938608458366
 20
-176.5109140518417
 30
0.0
  0
VERTEX
  5
5D8
  8
LAYER_1
 10
-3.115247697817166
 20
-176.70125714103
 30
0.0
  0
VERTEX
  5
5D9
  8
LAYER_1
 10
-3.358842087312391
 20
-176.9022318383356
 30
0.0
  0
VERTEX
  5
5DA
  8
LAYER_1
 10
-3.595721776944042
 20
-177.1138381437585
 30
0.0
  0
VERTEX
  5
5DB
  8
LAYER_1
 10
-3.825886766712118
 20
-177.3360760572987
 30
0.0
  0
VERTEX
  5
5DC
  8
LAYER_1
 10
-4.049337056616619
 20
-177.5689455789563
 30
0.0
  0
VERTEX
  5
5DD
  8
LAYER_1
 10
-4.266072646657547
 20
-177.8124467087312
 30
0.0
  0
VERTEX
  5
5DE
  8
LAYER_1
 10
-4.476093536834901
 20
-178.0665794466234
 30
0.0
  0
VERTEX
  5
5DF
  8
LAYER_1
 10
-4.679399727148679
 20
-178.331343792633
 30
0.0
  0
VERTEX
  5
5E0
  8
LAYER_1
 10
-4.875991217598884
 20
-178.6067397467599
 30
0.0
  0
VERTEX
  5
5E1
  8
LAYER_1
 10
-5.065868008185514
 20
-178.8927673090041
 30
0.0
  0
VERTEX
  5
5E2
  8
LAYER_1
 10
-5.24903009890857
 20
-179.1894264793656
 30
0.0
  0
VERTEX
  5
5E3
  8
LAYER_1
 10
-5.425477489768051
 20
-179.4967172578444
 30
0.0
  0
VERTEX
  5
5E4
  8
LAYER_1
 10
-5.595210180763958
 20
-179.8146396444406
 30
0.0
  0
VERTEX
  5
5E5
  8
LAYER_1
 10
-5.758228171896292
 20
-180.1431936391541
 30
0.0
  0
VERTEX
  5
5E6
  8
LAYER_1
 10
-5.914531463165051
 20
-180.482379241985
 30
0.0
  0
VERTEX
  5
5E7
  8
LAYER_1
 10
-6.064120054570235
 20
-180.8321964529331
 30
0.0
  0
VERTEX
  5
5E8
  8
LAYER_1
 10
-6.205968089188243
 20
-181.196748699693
 30
0.0
  0
VERTEX
  5
5E9
  8
LAYER_1
 10
-6.339049710095473
 20
-181.580139409959
 30
0.0
  0
VERTEX
  5
5EA
  8
LAYER_1
 10
-6.463364917291926
 20
-181.9823685837312
 30
0.0
  0
VERTEX
  5
5EB
  8
LAYER_1
 10
-6.578913710777602
 20
-182.4034362210095
 30
0.0
  0
VERTEX
  5
5EC
  8
LAYER_1
 10
-6.685696090552501
 20
-182.843342321794
 30
0.0
  0
VERTEX
  5
5ED
  8
LAYER_1
 10
-6.78371205661662
 20
-183.3020868860845
 30
0.0
  0
VERTEX
  5
5EE
  8
LAYER_1
 10
-6.872961608969963
 20
-183.7796699138813
 30
0.0
  0
VERTEX
  5
5EF
  8
LAYER_1
 10
-6.953444747612528
 20
-184.2760914051842
 30
0.0
  0
VERTEX
  5
5F0
  8
LAYER_1
 10
-7.025161472544315
 20
-184.7913513599932
 30
0.0
  0
VERTEX
  5
5F1
  8
LAYER_1
 10
-7.088111783765324
 20
-185.3254497783083
 30
0.0
  0
VERTEX
  5
5F2
  8
LAYER_1
 10
-7.142295681275556
 20
-185.8783866601296
 30
0.0
  0
VERTEX
  5
5F3
  8
LAYER_1
 10
-7.18771316507501
 20
-186.450162005457
 30
0.0
  0
VERTEX
  5
5F4
  8
LAYER_1
 10
-7.224364235163687
 20
-187.0407758142906
 30
0.0
  0
VERTEX
  5
5F5
  8
LAYER_1
 10
-7.252248891541587
 20
-187.6502280866302
 30
0.0
  0
VERTEX
  5
5F6
  8
LAYER_1
 10
-7.271367134208708
 20
-188.2785188224761
 30
0.0
  0
VERTEX
  5
5F7
  8
LAYER_1
 10
-7.281718963165051
 20
-188.9256480218281
 30
0.0
  0
VERTEX
  5
5F8
  8
LAYER_1
 10
-7.085034212994518
 20
-188.6349574735675
 30
0.0
  0
VERTEX
  5
5F9
  8
LAYER_1
 10
-6.882940399044996
 20
-188.3537794167803
 30
0.0
  0
VERTEX
  5
5FA
  8
LAYER_1
 10
-6.675437521316483
 20
-188.0821138514666
 30
0.0
  0
VERTEX
  5
5FB
  8
LAYER_1
 10
-6.46252557980898
 20
-187.8199607776262
 30
0.0
  0
VERTEX
  5
5FC
  8
LAYER_1
 10
-6.244204574522486
 20
-187.5673201952592
 30
0.0
  0
VERTEX
  5
5FD
  8
LAYER_1
 10
-6.020474505457002
 20
-187.3241921043656
 30
0.0
  0
VERTEX
  5
5FE
  8
LAYER_1
 10
-5.791335372612527
 20
-187.0905765049454
 30
0.0
  0
VERTEX
  5
5FF
  8
LAYER_1
 10
-5.556787175989061
 20
-186.8664733969986
 30
0.0
  0
VERTEX
  5
600
  8
LAYER_1
 10
-5.316829915586606
 20
-186.6518827805252
 30
0.0
  0
VERTEX
  5
601
  8
LAYER_1
 10
-5.07146359140516
 20
-186.4468046555252
 30
0.0
  0
VERTEX
  5
602
  8
LAYER_1
 10
-4.820688203444723
 20
-186.2512390219986
 30
0.0
  0
VERTEX
  5
603
  8
LAYER_1
 10
-4.564503751705296
 20
-186.0651858799454
 30
0.0
  0
VERTEX
  5
604
  8
LAYER_1
 10
-4.302910236186879
 20
-185.8886452293656
 30
0.0
  0
VERTEX
  5
605
  8
LAYER_1
 10
-4.035907656889471
 20
-185.7216170702592
 30
0.0
  0
VERTEX
  5
606
  8
LAYER_1
 10
-3.763496013813072
 20
-185.5641014026262
 30
0.0
  0
VERTEX
  5
607
  8
LAYER_1
 10
-3.485675306957684
 20
-185.4160982264665
 30
0.0
  0
VERTEX
  5
608
  8
LAYER_1
 10
-3.204310730729853
 20
-185.2773277626193
 30
0.0
  0
VERTEX
  5
609
  8
LAYER_1
 10
-2.921267479536128
 20
-185.1475102319236
 30
0.0
  0
VERTEX
  5
60A
  8
LAYER_1
 10
-2.636545553376511
 20
-185.0266456343792
 30
0.0
  0
VERTEX
  5
60B
  8
LAYER_1
 10
-2.350144952250999
 20
-184.9147339699863
 30
0.0
  0
VERTEX
  5
60C
  8
LAYER_1
 10
-2.062065676159593
 20
-184.8117752387448
 30
0.0
  0
VERTEX
  5
60D
  8
LAYER_1
 10
-1.772307725102295
 20
-184.7177694406548
 30
0.0
  0
VERTEX
  5
60E
  8
LAYER_1
 10
-1.480871099079102
 20
-184.6327165757162
 30
0.0
  0
VERTEX
  5
60F
  8
LAYER_1
 10
-1.187755798090016
 20
-184.556616643929
 30
0.0
  0
VERTEX
  5
610
  8
LAYER_1
 10
-0.8929618221350368
 20
-184.4894696452933
 30
0.0
  0
VERTEX
  5
611
  8
LAYER_1
 10
-0.5964891712141638
 20
-184.431275579809
 30
0.0
  0
VERTEX
  5
612
  8
LAYER_1
 10
-0.2983378453273971
 20
-184.3820344474761
 30
0.0
  0
VERTEX
  5
613
  8
LAYER_1
 10
0.0014921555252632
 20
-184.3417462482946
 30
0.0
  0
VERTEX
  5
614
  8
LAYER_1
 10
0.303000831343817
 20
-184.3104109822646
 30
0.0
  0
VERTEX
  5
615
  8
LAYER_1
 10
0.6061881821282644
 20
-184.2880286493861
 30
0.0
  0
VERTEX
  5
616
  8
LAYER_1
 10
0.9110542078786057
 20
-184.2745992496589
 30
0.0
  0
VERTEX
  5
617
  8
LAYER_1
 10
1.21759890859484
 20
-184.2701227830832
 30
0.0
  0
VERTEX
  5
618
  8
LAYER_1
 10
1.749785502643271
 20
-184.2824796960266
 30
0.0
  0
VERTEX
  5
619
  8
LAYER_1
 10
2.271993306616668
 20
-184.3195504348567
 30
0.0
  0
VERTEX
  5
61A
  8
LAYER_1
 10
2.78422232051503
 20
-184.3813349995737
 30
0.0
  0
VERTEX
  5
61B
  8
LAYER_1
 10
3.286472544338359
 20
-184.4678333901773
 30
0.0
  0
VERTEX
  5
61C
  8
LAYER_1
 10
3.778743978086654
 20
-184.5790456066678
 30
0.0
  0
VERTEX
  5
61D
  8
LAYER_1
 10
4.261036621759915
 20
-184.714971649045
 30
0.0
  0
VERTEX
  5
61E
  8
LAYER_1
 10
4.733350475358141
 20
-184.875611517309
 30
0.0
  0
VERTEX
  5
61F
  8
LAYER_1
 10
5.195685538881333
 20
-185.0609652114597
 30
0.0
  0
VERTEX
  5
620
  8
LAYER_1
 10
5.648041812329492
 20
-185.2710327314972
 30
0.0
  0
VERTEX
  5
621
  8
LAYER_1
 10
6.090419295702617
 20
-185.5058140774215
 30
0.0
  0
VERTEX
  5
622
  8
LAYER_1
 10
6.522817989000707
 20
-185.7653092492326
 30
0.0
  0
VERTEX
  5
623
  8
LAYER_1
 10
6.945237892223763
 20
-186.0495182469304
 30
0.0
  0
VERTEX
  5
624
  8
LAYER_1
 10
7.357679005371785
 20
-186.358441070515
 30
0.0
  0
VERTEX
  5
625
  8
LAYER_1
 10
7.760141328444774
 20
-186.6920777199863
 30
0.0
  0
VERTEX
  5
626
  8
LAYER_1
 10
8.152624861442726
 20
-187.0504281953445
 30
0.0
  0
VERTEX
  5
627
  8
LAYER_1
 10
8.535129604365645
 20
-187.4334924965893
 30
0.0
  0
VERTEX
  5
628
  8
LAYER_1
 10
8.900847597629628
 20
-187.836141339103
 30
0.0
  0
VERTEX
  5
629
  8
LAYER_1
 10
9.242970881650773
 20
-188.2532454382674
 30
0.0
  0
VERTEX
  5
62A
  8
LAYER_1
 10
9.561499456429082
 20
-188.6848047940825
 30
0.0
  0
VERTEX
  5
62B
  8
LAYER_1
 10
9.856433321964554
 20
-189.1308194065484
 30
0.0
  0
VERTEX
  5
62C
  8
LAYER_1
 10
10.12777247825719
 20
-189.591289275665
 30
0.0
  0
VERTEX
  5
62D
  8
LAYER_1
 10
10.37551692530698
 20
-190.0662144014325
 30
0.0
  0
VERTEX
  5
62E
  8
LAYER_1
 10
10.59966666311394
 20
-190.5555947838506
 30
0.0
  0
VERTEX
  5
62F
  8
LAYER_1
 10
10.80022169167806
 20
-191.0594304229195
 30
0.0
  0
VERTEX
  5
630
  8
LAYER_1
 10
10.97718201099934
 20
-191.5777213186391
 30
0.0
  0
VERTEX
  5
631
  8
LAYER_1
 10
11.13054762107779
 20
-192.1104674710095
 30
0.0
  0
VERTEX
  5
632
  8
LAYER_1
 10
11.2603185219134
 20
-192.6576688800307
 30
0.0
  0
VERTEX
  5
633
  8
LAYER_1
 10
11.36649471350617
 20
-193.2193255457026
 30
0.0
  0
VERTEX
  5
634
  8
LAYER_1
 10
11.4490761958561
 20
-193.7954374680252
 30
0.0
  0
VERTEX
  5
635
  8
LAYER_1
 10
11.50806296896319
 20
-194.3860046469986
 30
0.0
  0
VERTEX
  5
636
  8
LAYER_1
 10
11.54345503282745
 20
-194.9910270826228
 30
0.0
  0
VERTEX
  5
637
  8
LAYER_1
 10
11.55525238744887
 20
-195.6105047748977
 30
0.0
  0
VERTEX
  5
638
  8
LAYER_1
 10
11.54970343408939
 20
-196.0205211353172
 30
0.0
  0
VERTEX
  5
639
  8
LAYER_1
 10
11.53305657401094
 20
-196.4269003666439
 30
0.0
  0
VERTEX
  5
63A
  8
LAYER_1
 10
11.50531180721353
 20
-196.8296424688779
 30
0.0
  0
VERTEX
  5
63B
  8
LAYER_1
 10
11.46646913369716
 20
-197.2287474420191
 30
0.0
  0
VERTEX
  5
63C
  8
LAYER_1
 10
11.41652855346183
 20
-197.6242152860675
 30
0.0
  0
VERTEX
  5
63D
  8
LAYER_1
 10
11.35549006650753
 20
-198.0160460010231
 30
0.0
  0
VERTEX
  5
63E
  8
LAYER_1
 10
11.28335367283427
 20
-198.404239586886
 30
0.0
  0
VERTEX
  5
63F
  8
LAYER_1
 10
11.20011937244204
 20
-198.7887960436562
 30
0.0
  0
VERTEX
  5
640
  8
LAYER_1
 10
11.10578716533086
 20
-199.1697153713336
 30
0.0
  0
VERTEX
  5
641
  8
LAYER_1
 10
11.00035705150071
 20
-199.5469975699181
 30
0.0
  0
VERTEX
  5
642
  8
LAYER_1
 10
10.8838290309516
 20
-199.9206426394099
 30
0.0
  0
VERTEX
  5
643
  8
LAYER_1
 10
10.75620310368352
 20
-200.290650579809
 30
0.0
  0
VERTEX
  5
644
  8
LAYER_1
 10
10.61747926969648
 20
-200.6570213911153
 30
0.0
  0
VERTEX
  5
645
  8
LAYER_1
 10
10.46765752899048
 20
-201.0197550733288
 30
0.0
  0
VERTEX
  5
646
  8
LAYER_1
 10
10.30673788156551
 20
-201.3788516264495
 30
0.0
  0
VERTEX
  5
647
  8
LAYER_1
 10
10.13472032742158
 20
-201.7343110504775
 30
0.0
  0
VERTEX
  5
648
  8
LAYER_1
 10
9.9530037623636
 20
-202.0827759954809
 30
0.0
  0
VERTEX
  5
649
  8
LAYER_1
 10
9.762987082196478
 20
-202.4208891115279
 30
0.0
  0
VERTEX
  5
64A
  8
LAYER_1
 10
9.564670286920217
 20
-202.7486503986187
 30
0.0
  0
VERTEX
  5
64B
  8
LAYER_1
 10
9.358053376534812
 20
-203.066059856753
 30
0.0
  0
VERTEX
  5
64C
  8
LAYER_1
 10
9.143136351040269
 20
-203.3731174859311
 30
0.0
  0
VERTEX
  5
64D
  8
LAYER_1
 10
8.919919210436586
 20
-203.6698232861528
 30
0.0
  0
VERTEX
  5
64E
  8
LAYER_1
 10
8.688401954723762
 20
-203.9561772574181
 30
0.0
  0
VERTEX
  5
64F
  8
LAYER_1
 10
8.448584583901798
 20
-204.2321793997271
 30
0.0
  0
VERTEX
  5
650
  8
LAYER_1
 10
8.200467097970694
 20
-204.4978297130798
 30
0.0
  0
VERTEX
  5
651
  8
LAYER_1
 10
7.944049496930447
 20
-204.7531281974761
 30
0.0
  0
VERTEX
  5
652
  8
LAYER_1
 10
7.679331780781061
 20
-204.9980748529161
 30
0.0
  0
VERTEX
  5
653
  8
LAYER_1
 10
7.406313949522534
 20
-205.2326696793997
 30
0.0
  0
VERTEX
  5
654
  8
LAYER_1
 10
7.124996003154868
 20
-205.456912676927
 30
0.0
  0
VERTEX
  5
655
  8
LAYER_1
 10
6.835377941678059
 20
-205.6708038454979
 30
0.0
  0
VERTEX
  5
656
  8
LAYER_1
 10
6.537459765092112
 20
-205.8743431851125
 30
0.0
  0
VERTEX
  5
657
  8
LAYER_1
 10
6.231241473397022
 20
-206.0675306957708
 30
0.0
  0
VERTEX
  5
658
  8
LAYER_1
 10
5.918261851978196
 20
-206.2496669295703
 30
0.0
  0
VERTEX
  5
659
  8
LAYER_1
 10
5.600059686221033
 20
-206.4200524386085
 30
0.0
  0
VERTEX
  5
65A
  8
LAYER_1
 10
5.276634976125536
 20
-206.5786872228854
 30
0.0
  0
VERTEX
  5
65B
  8
LAYER_1
 10
4.947987721691701
 20
-206.7255712824011
 30
0.0
  0
VERTEX
  5
65C
  8
LAYER_1
 10
4.614117922919533
 20
-206.8607046171555
 30
0.0
  0
VERTEX
  5
65D
  8
LAYER_1
 10
4.275025579809028
 20
-206.9840872271487
 30
0.0
  0
VERTEX
  5
65E
  8
LAYER_1
 10
3.930710692360188
 20
-207.0957191123806
 30
0.0
  0
VERTEX
  5
65F
  8
LAYER_1
 10
3.581173260573012
 20
-207.1956002728513
 30
0.0
  0
VERTEX
  5
660
  8
LAYER_1
 10
3.226413284447501
 20
-207.2837307085607
 30
0.0
  0
VERTEX
  5
661
  8
LAYER_1
 10
2.866430763983654
 20
-207.3601104195088
 30
0.0
  0
VERTEX
  5
662
  8
LAYER_1
 10
2.501225699181472
 20
-207.4247394056957
 30
0.0
  0
VERTEX
  5
663
  8
LAYER_1
 10
2.130798090040953
 20
-207.4776176671214
 30
0.0
  0
VERTEX
  5
664
  8
LAYER_1
 10
1.755147936562099
 20
-207.5187452037858
 30
0.0
  0
VERTEX
  5
665
  8
LAYER_1
 10
1.374275238744909
 20
-207.5481220156889
 30
0.0
  0
VERTEX
  5
666
  8
LAYER_1
 10
0.988179996589384
 20
-207.5657481028308
 30
0.0
  0
VERTEX
  5
667
  8
LAYER_1
 10
0.5968622100955232
 20
-207.5716234652114
 30
0.0
  0
VERTEX
  5
668
  8
LAYER_1
 10
0.2630623561135995
 20
-207.5677648442829
 30
0.0
  0
VERTEX
  5
669
  8
LAYER_1
 10
-0.0668672194747361
 20
-207.5561889814973
 30
0.0
  0
VERTEX
  5
66A
  8
LAYER_1
 10
-0.3929265166694837
 20
-207.5368958768545
 30
0.0
  0
VERTEX
  5
66B
  8
LAYER_1
 10
-0.7151155354706435
 20
-207.5098855303547
 30
0.0
  0
VERTEX
  5
66C
  8
LAYER_1
 10
-1.033434275878215
 20
-207.4751579419977
 30
0.0
  0
VERTEX
  5
66D
  8
LAYER_1
 10
-1.347882737892199
 20
-207.4327131117837
 30
0.0
  0
VERTEX
  5
66E
  8
LAYER_1
 10
-1.658460921512594
 20
-207.3825510397126
 30
0.0
  0
VERTEX
  5
66F
  8
LAYER_1
 10
-1.965168826739402
 20
-207.3246717257844
 30
0.0
  0
VERTEX
  5
670
  8
LAYER_1
 10
-2.268006453572621
 20
-207.2590751699991
 30
0.0
  0
VERTEX
  5
671
  8
LAYER_1
 10
-2.566973802012253
 20
-207.1857613723567
 30
0.0
  0
VERTEX
  5
672
  8
LAYER_1
 10
-2.862070872058297
 20
-207.1047303328572
 30
0.0
  0
VERTEX
  5
673
  8
LAYER_1
 10
-3.153297663710753
 20
-207.0159820515007
 30
0.0
  0
VERTEX
  5
674
  8
LAYER_1
 10
-3.440654176969621
 20
-206.919516528287
 30
0.0
  0
VERTEX
  5
675
  8
LAYER_1
 10
-3.724140411834901
 20
-206.8153337632162
 30
0.0
  0
VERTEX
  5
676
  8
LAYER_1
 10
-4.003756368306592
 20
-206.7034337562883
 30
0.0
  0
VERTEX
  5
677
  8
LAYER_1
 10
-4.279502046384696
 20
-206.5838165075034
 30
0.0
  0
VERTEX
  5
678
  8
LAYER_1
 10
-4.551377446069211
 20
-206.4564820168613
 30
0.0
  0
VERTEX
  5
679
  8
LAYER_1
 10
-4.819382567360138
 20
-206.3214302843622
 30
0.0
  0
VERTEX
  5
67A
  8
LAYER_1
 10
-5.083517410257478
 20
-206.178661310006
 30
0.0
  0
VERTEX
  5
67B
  8
LAYER_1
 10
-5.34378197476123
 20
-206.0281750937926
 30
0.0
  0
VERTEX
  5
67C
  8
LAYER_1
 10
-5.600176260871393
 20
-205.8699716357222
 30
0.0
  0
VERTEX
  5
67D
  8
LAYER_1
 10
-5.85270026858797
 20
-205.7040509357947
 30
0.0
  0
VERTEX
  5
67E
  8
LAYER_1
 10
-6.101353997910957
 20
-205.53041299401
 30
0.0
  0
VERTEX
  5
67F
  8
LAYER_1
 10
-6.346137448840357
 20
-205.3490578103683
 30
0.0
  0
VERTEX
  5
680
  8
LAYER_1
 10
-6.58705062137617
 20
-205.1599853848695
 30
0.0
  0
VERTEX
  5
681
  8
LAYER_1
 10
-6.824093515518394
 20
-204.9631957175136
 30
0.0
  0
VERTEX
  5
682
  8
LAYER_1
 10
-7.05726613126703
 20
-204.7586888083006
 30
0.0
  0
VERTEX
  5
683
  8
LAYER_1
 10
-7.286568468622077
 20
-204.5464646572306
 30
0.0
  0
VERTEX
  5
684
  8
LAYER_1
 10
-7.512000527583536
 20
-204.3265232643034
 30
0.0
  0
VERTEX
  5
685
  8
LAYER_1
 10
-7.733562308151409
 20
-204.0988646295191
 30
0.0
  0
VERTEX
  5
686
  8
LAYER_1
 10
-7.951253810325693
 20
-203.8634887528777
 30
0.0
  0
VERTEX
  5
687
  8
LAYER_1
 10
-8.165075034106389
 20
-203.6203956343792
 30
0.0
  0
VERTEX
  5
688
  8
LAYER_1
 10
-8.373650398618667
 20
-203.3684428424497
 30
0.0
  0
VERTEX
  5
689
  8
LAYER_1
 10
-8.575604322987699
 20
-203.106487945515
 30
0.0
  0
VERTEX
  5
68A
  8
LAYER_1
 10
-8.770936807213483
 20
-202.8345309435752
 30
0.0
  0
VERTEX
  5
68B
  8
LAYER_1
 10
-8.959647851296019
 20
-202.5525718366302
 30
0.0
  0
VERTEX
  5
68C
  8
LAYER_1
 10
-9.14173745523531
 20
-202.2606106246802
 30
0.0
  0
VERTEX
  5
68D
  8
LAYER_1
 10
-9.317205619031354
 20
-201.9586473077251
 30
0.0
  0
VERTEX
  5
68E
  8
LAYER_1
 10
-9.48605234268415
 20
-201.6466818857648
 30
0.0
  0
VERTEX
  5
68F
  8
LAYER_1
 10
-9.6482776261937
 20
-201.3247143587994
 30
0.0
  0
VERTEX
  5
690
  8
LAYER_1
 10
-9.803881469560004
 20
-200.9927447268289
 30
0.0
  0
VERTEX
  5
691
  8
LAYER_1
 10
-9.95286387278306
 20
-200.6507729898533
 30
0.0
  0
VERTEX
  5
692
  8
LAYER_1
 10
-10.09522483586287
 20
-200.2987991478726
 30
0.0
  0
VERTEX
  5
693
  8
LAYER_1
 10
-10.23096435879943
 20
-199.9368232008867
 30
0.0
  0
VERTEX
  5
694
  8
LAYER_1
 10
-10.36008244159274
 20
-199.5648451488958
 30
0.0
  0
VERTEX
  5
695
  8
LAYER_1
 10
-10.48257908424281
 20
-199.1828649918997
 30
0.0
  0
VERTEX
  5
696
  8
LAYER_1
 10
-10.59845428674963
 20
-198.7908827298985
 30
0.0
  0
VERTEX
  5
697
  8
LAYER_1
 10
-10.70770804911321
 20
-198.3888983628922
 30
0.0
  0
VERTEX
  5
698
  8
LAYER_1
 10
-10.81034037133353
 20
-197.9769118908808
 30
0.0
  0
VERTEX
  5
699
  8
LAYER_1
 10
-10.90635125341062
 20
-197.5549233138642
 30
0.0
  0
VERTEX
  5
69A
  8
LAYER_1
 10
-10.99574069534445
 20
-197.1229326318426
 30
0.0
  0
VERTEX
  5
69B
  8
LAYER_1
 10
-11.07850869713504
 20
-196.6809398448158
 30
0.0
  0
VERTEX
  5
69C
  8
LAYER_1
 10
-11.15465525878238
 20
-196.2289449527839
 30
0.0
  0
VERTEX
  5
69D
  8
LAYER_1
 10
-11.22418038028647
 20
-195.7669479557469
 30
0.0
  0
VERTEX
  5
69E
  8
LAYER_1
 10
-11.28708406164731
 20
-195.2949488537048
 30
0.0
  0
VERTEX
  5
69F
  8
LAYER_1
 10
-11.34336630286491
 20
-194.8129476466575
 30
0.0
  0
VERTEX
  5
6A0
  8
LAYER_1
 10
-11.39302710393927
 20
-194.3209443346052
 30
0.0
  0
VERTEX
  5
6A1
  8
LAYER_1
 10
-11.43606646487037
 20
-193.8189389175477
 30
0.0
  0
VERTEX
  5
6A2
  8
LAYER_1
 10
-11.50228086630284
 20
-192.7849217684174
 30
0.0
  0
VERTEX
  5
6A3
  8
LAYER_1
 10
-11.54200950716232
 20
-191.7108961992667
 30
0.0
  0
VERTEX
  5
6A4
  8
LAYER_1
 10
-11.55525238744882
 20
-190.5968622100955
 30
0.0
  0
VERTEX
  5
6A5
  8
LAYER_1
 10
-11.54061061135741
 20
-189.3501662687585
 30
0.0
  0
VERTEX
  5
6A6
  8
LAYER_1
 10
-11.52230839124315
 20
-188.743045489427
 30
0.0
  0
VERTEX
  5
6A7
  8
LAYER_1
 10
-11.4966852830832
 20
-188.1467428376535
 30
0.0
  0
VERTEX
  5
6A8
  8
LAYER_1
 10
-11.46374128687753
 20
-187.5612583134379
 30
0.0
  0
VERTEX
  5
6A9
  8
LAYER_1
 10
-11.42347640262617
 20
-186.9865919167803
 30
0.0
  0
VERTEX
  5
6AA
  8
LAYER_1
 10
-11.3758906303291
 20
-186.4227436476807
 30
0.0
  0
VERTEX
  5
6AB
  8
LAYER_1
 10
-11.32098396998633
 20
-185.8697135061391
 30
0.0
  0
VERTEX
  5
6AC
  8
LAYER_1
 10
-11.25875642159786
 20
-185.3275014921555
 30
0.0
  0
VERTEX
  5
6AD
  8
LAYER_1
 10
-11.18920798516369
 20
-184.7961076057298
 30
0.0
  0
VERTEX
  5
6AE
  8
LAYER_1
 10
-11.11233866068381
 20
-184.2755318468622
 30
0.0
  0
VERTEX
  5
6AF
  8
LAYER_1
 10
-11.02814844815823
 20
-183.7657742155525
 30
0.0
  0
VERTEX
  5
6B0
  8
LAYER_1
 10
-10.93663734758695
 20
-183.2668347118008
 30
0.0
  0
VERTEX
  5
6B1
  8
LAYER_1
 10
-10.83780535896996
 20
-182.7787133356071
 30
0.0
  0
VERTEX
  5
6B2
  8
LAYER_1
 10
-10.73165248230727
 20
-182.3014100869713
 30
0.0
  0
VERTEX
  5
6B3
  8
LAYER_1
 10
-10.61817871759888
 20
-181.8349249658936
 30
0.0
  0
VERTEX
  5
6B4
  8
LAYER_1
 10
-10.49738406484479
 20
-181.3792579723738
 30
0.0
  0
VERTEX
  5
6B5
  8
LAYER_1
 10
-10.369268524045
 20
-180.934409106412
 30
0.0
  0
VERTEX
  5
6B6
  8
LAYER_1
 10
-10.2338320951995
 20
-180.5003783680082
 30
0.0
  0
VERTEX
  5
6B7
  8
LAYER_1
 10
-10.0910747783083
 20
-180.0771657571623
 30
0.0
  0
VERTEX
  5
6B8
  8
LAYER_1
 10
-9.940996573371393
 20
-179.6647712738745
 30
0.0
  0
VERTEX
  5
6B9
  8
LAYER_1
 10
-9.783597480388789
 20
-179.2631949181446
 30
0.0
  0
VERTEX
  5
6BA
  8
LAYER_1
 10
-9.61887749936048
 20
-178.8724366899727
 30
0.0
  0
VERTEX
  5
6BB
  8
LAYER_1
 10
-9.44683663028647
 20
-178.4924965893588
 30
0.0
  0
VERTEX
  5
6BC
  8
LAYER_1
 10
-9.267474873166757
 20
-178.1233746163028
 30
0.0
  0
VERTEX
  5
6BD
  8
LAYER_1
 10
-9.080792228001343
 20
-177.7650707708049
 30
0.0
  0
VERTEX
  5
6BE
  8
LAYER_1
 10
-8.886788694790223
 20
-177.4175850528649
 30
0.0
  0
VERTEX
  5
6BF
  8
LAYER_1
 10
-8.685464273533402
 20
-177.0809174624829
 30
0.0
  0
VERTEX
  5
6C0
  8
LAYER_1
 10
-8.476818964230876
 20
-176.7550679996589
 30
0.0
  0
VERTEX
  5
6C1
  8
LAYER_1
 10
-8.26085276688265
 20
-176.4400366643929
 30
0.0
  0
VERTEX
  5
6C2
  8
LAYER_1
 10
-8.03756568148872
 20
-176.1358234566848
 30
0.0
  0
VERTEX
  5
6C3
  8
LAYER_1
 10
-7.806957708049088
 20
-175.8424283765348
 30
0.0
  0
VERTEX
  5
6C4
  8
LAYER_1
 10
-7.600317482733604
 20
-175.5956631565484
 30
0.0
  0
VERTEX
  5
6C5
  8
LAYER_1
 10
-7.389247420702567
 20
-175.3567317530695
 30
0.0
  0
VERTEX
  5
6C6
  8
LAYER_1
 10
-7.173747521955978
 20
-175.1256341660982
 30
0.0
  0
VERTEX
  5
6C7
  8
LAYER_1
 10
-6.953817786493836
 20
-174.9023703956344
 30
0.0
  0
VERTEX
  5
6C8
  8
LAYER_1
 10
-6.729458214316142
 20
-174.686940441678
 30
0.0
  0
VERTEX
  5
6C9
  8
LAYER_1
 10
-6.500668805422895
 20
-174.4793443042292
 30
0.0
  0
VERTEX
  5
6CA
  8
LAYER_1
 10
-6.267449559814096
 20
-174.2795819832878
 30
0.0
  0
VERTEX
  5
6CB
  8
LAYER_1
 10
-6.029800477489744
 20
-174.087653478854
 30
0.0
  0
VERTEX
  5
6CC
  8
LAYER_1
 10
-5.787721558449839
 20
-173.9035587909277
 30
0.0
  0
VERTEX
  5
6CD
  8
LAYER_1
 10
-5.541212802694382
 20
-173.7272979195088
 30
0.0
  0
VERTEX
  5
6CE
  8
LAYER_1
 10
-5.290274210223373
 20
-173.5588708645975
 30
0.0
  0
VERTEX
  5
6CF
  8
LAYER_1
 10
-5.034905781036811
 20
-173.3982776261937
 30
0.0
  0
VERTEX
  5
6D0
  8
LAYER_1
 10
-4.775107515134696
 20
-173.2455182042974
 30
0.0
  0
VERTEX
  5
6D1
  8
LAYER_1
 10
-4.51087941251703
 20
-173.1005925989086
 30
0.0
  0
VERTEX
  5
6D2
  8
LAYER_1
 10
-4.24222147318381
 20
-172.9635008100273
 30
0.0
  0
VERTEX
  5
6D3
  8
LAYER_1
 10
-3.969133697135037
 20
-172.8342428376534
 30
0.0
  0
VERTEX
  5
6D4
  8
LAYER_1
 10
-3.691616084370712
 20
-172.7128186817871
 30
0.0
  0
VERTEX
  5
6D5
  8
LAYER_1
 10
-3.409668634890836
 20
-172.5992283424283
 30
0.0
  0
VERTEX
  5
6D6
  8
LAYER_1
 10
-3.123291348695406
 20
-172.493471819577
 30
0.0
  0
VERTEX
  5
6D7
  8
LAYER_1
 10
-2.832484225784424
 20
-172.3955491132332
 30
0.0
  0
VERTEX
  5
6D8
  8
LAYER_1
 10
-2.537247266157888
 20
-172.3054602233969
 30
0.0
  0
VERTEX
  5
6D9
  8
LAYER_1
 10
-2.237580469815802
 20
-172.2232051500682
 30
0.0
  0
VERTEX
  5
6DA
  8
LAYER_1
 10
-1.933483836758161
 20
-172.1487838932469
 30
0.0
  0
VERTEX
  5
6DB
  8
LAYER_1
 10
-1.624957366984969
 20
-172.0821964529331
 30
0.0
  0
VERTEX
  5
6DC
  8
LAYER_1
 10
-1.312001060496224
 20
-172.0234428291269
 30
0.0
  0
VERTEX
  5
6DD
  8
LAYER_1
 10
-0.9946149172919267
 20
-171.9725230218281
 30
0.0
  0
VERTEX
  5
6DE
  8
LAYER_1
 10
-0.6727989373720769
 20
-171.9294370310368
 30
0.0
  0
VERTEX
  5
6DF
  8
LAYER_1
 10
-0.3465531207366744
 20
-171.894184856753
 30
0.0
  0
VERTEX
  5
6E0
  8
LAYER_1
 10
-0.0158774673857194
 20
-171.8667664989767
 30
0.0
  0
VERTEX
  5
6E1
  8
LAYER_1
 10
0.3192280226807881
 20
-171.847181957708
 30
0.0
  0
VERTEX
  5
6E2
  8
LAYER_1
 10
0.6587633494628482
 20
-171.8354312329468
 30
0.0
  0
VERTEX
  5
6E3
  8
LAYER_1
 10
1.002728512960461
 20
-171.831514324693
 30
0.0
  0
VERTEX
  5
6E4
  8
LAYER_1
 10
1.513185592172603
 20
-171.8405605175648
 30
0.0
  0
VERTEX
  5
6E5
  8
LAYER_1
 10
2.011985206343817
 20
-171.86769909618
 30
0.0
  0
VERTEX
  5
6E6
  8
LAYER_1
 10
2.499127355474104
 20
-171.9129300605389
 30
0.0
  0
VERTEX
  5
6E7
  8
LAYER_1
 10
2.974612039563463
 20
-171.9762534106412
 30
0.0
  0
VERTEX
  5
6E8
  8
LAYER_1
 10
3.438439258611894
 20
-172.057669146487
 30
0.0
  0
VERTEX
  5
6E9
  8
LAYER_1
 10
3.890609012619398
 20
-172.1571772680764
 30
0.0
  0
VERTEX
  5
6EA
  8
LAYER_1
 10
4.331121301585974
 20
-172.2747777754092
 30
0.0
  0
VERTEX
  5
6EB
  8
LAYER_1
 10
4.759976125511622
 20
-172.4104706684856
 30
0.0
  0
VERTEX
  5
6EC
  8
LAYER_1
 10
5.177173484396342
 20
-172.5642559473055
 30
0.0
  0
VERTEX
  5
6ED
  8
LAYER_1
 10
5.582713378240134
 20
-172.736133611869
 30
0.0
  0
VERTEX
  5
6EE
  8
LAYER_1
 10
5.976595807042999
 20
-172.926103662176
 30
0.0
  0
VERTEX
  5
6EF
  8
LAYER_1
 10
6.358820770804936
 20
-173.1341660982264
 30
0.0
  0
VERTEX
  5
6F0
  8
LAYER_1
 10
6.729388269525945
 20
-173.3603209200204
 30
0.0
  0
VERTEX
  5
6F1
  8
LAYER_1
 10
7.088298303206027
 20
-173.6045681275579
 30
0.0
  0
VERTEX
  5
6F2
  8
LAYER_1
 10
7.435550871845181
 20
-173.866907720839
 30
0.0
  0
VERTEX
  5
6F3
  8
LAYER_1
 10
7.771145975443408
 20
-174.1473396998636
 30
0.0
  0
VERTEX
  5
6F4
  8
LAYER_1
 10
8.092658861272193
 20
-174.4437190910641
 30
0.0
  0
VERTEX
  5
6F5
  8
LAYER_1
 10
8.397664776603026
 20
-174.7539009208731
 30
0.0
  0
VERTEX
  5
6F6
  8
LAYER_1
 10
8.686163721435904
 20
-175.0778851892906
 30
0.0
  0
VERTEX
  5
6F7
  8
LAYER_1
 10
8.958155695770827
 20
-175.4156718963165
 30
0.0
  0
VERTEX
  5
6F8
  8
LAYER_1
 10
9.213640699607799
 20
-175.7672610419509
 30
0.0
  0
VERTEX
  5
6F9
  8
LAYER_1
 10
9.452618732946817
 20
-176.1326526261937
 30
0.0
  0
VERTEX
  5
6FA
  8
LAYER_1
 10
9.675089795787882
 20
-176.511846649045
 30
0.0
  0
VERTEX
  5
6FB
  8
LAYER_1
 10
9.881053888130992
 20
-176.9048431105047
 30
0.0
  0
VERTEX
  5
6FC
  8
LAYER_1
 10
10.07051100997615
 20
-177.311642010573
 30
0.0
  0
VERTEX
  5
6FD
  8
LAYER_1
 10
10.24346116132335
 20
-177.7322433492496
 30
0.0
  0
VERTEX
  5
6FE
  8
LAYER_1
 10
10.3999043421726
 20
-178.1666471265348
 30
0.0
  0
VERTEX
  5
6FF
  8
LAYER_1
 10
10.5398405525239
 20
-178.6148533424283
 30
0.0
  0
VERTEX
  5
700
  8
LAYER_1
 10
10.66326979237724
 20
-179.0768619969304
 30
0.0
  0
VERTEX
  5
701
  8
LAYER_1
 10
10.77019206173263
 20
-179.5526730900409
 30
0.0
  0
VERTEX
  5
702
  8
LAYER_1
 10
10.86060736059006
 20
-180.0422866217599
 30
0.0
  0
SEQEND
  5
E9F
  8
LAYER_1
  0
POLYLINE
  5
7A
  8
LAYER_1
 66
     1
 10
0.0
 20
0.0
 30
0.0
 70
     1
  0
VERTEX
  5
703
  8
LAYER_1
 10
-6.613233287858092
 20
-195.6343792633015
 30
0.0
  0
VERTEX
  5
704
  8
LAYER_1
 10
-6.59849825204636
 20
-196.1864768076398
 30
0.0
  0
VERTEX
  5
705
  8
LAYER_1
 10
-6.554293144611163
 20
-196.7326057298772
 30
0.0
  0
VERTEX
  5
706
  8
LAYER_1
 10
-6.521139314034764
 20
-197.003431957708
 30
0.0
  0
VERTEX
  5
707
  8
LAYER_1
 10
-6.4806179655525
 20
-197.2727660300136
 30
0.0
  0
VERTEX
  5
708
  8
LAYER_1
 10
-6.432729099164368
 20
-197.540607946794
 30
0.0
  0
VERTEX
  5
709
  8
LAYER_1
 10
-6.377472714870371
 20
-197.8069577080491
 30
0.0
  0
VERTEX
  5
70A
  8
LAYER_1
 10
-6.314848812670507
 20
-198.071815313779
 30
0.0
  0
VERTEX
  5
70B
  8
LAYER_1
 10
-6.244857392564777
 20
-198.3351807639836
 30
0.0
  0
VERTEX
  5
70C
  8
LAYER_1
 10
-6.082771998635719
 20
-198.8574351978172
 30
0.0
  0
VERTEX
  5
70D
  8
LAYER_1
 10
-5.891216533083195
 20
-199.3737210095498
 30
0.0
  0
VERTEX
  5
70E
  8
LAYER_1
 10
-5.670190995907206
 20
-199.8840381991814
 30
0.0
  0
VERTEX
  5
70F
  8
LAYER_1
 10
-5.549373028223032
 20
-200.1339276197988
 30
0.0
  0
VERTEX
  5
710
  8
LAYER_1
 10
-5.422679698158229
 20
-200.3762630030696
 30
0.0
  0
VERTEX
  5
711
  8
LAYER_1
 10
-5.2901110057128
 20
-200.6110443489939
 30
0.0
  0
VERTEX
  5
712
  8
LAYER_1
 10
-5.151666950886742
 20
-200.8382716575716
 30
0.0
  0
VERTEX
  5
713
  8
LAYER_1
 10
-5.007347533680058
 20
-201.0579449288028
 30
0.0
  0
VERTEX
  5
714
  8
LAYER_1
 10
-4.857152754092745
 20
-201.2700641626876
 30
0.0
  0
VERTEX
  5
715
  8
LAYER_1
 10
-4.701082612124805
 20
-201.4746293592257
 30
0.0
  0
VERTEX
  5
716
  8
LAYER_1
 10
-4.539137107776237
 20
-201.6716405184174
 30
0.0
  0
VERTEX
  5
717
  8
LAYER_1
 10
-4.371316241047043
 20
-201.8610976402626
 30
0.0
  0
VERTEX
  5
718
  8
LAYER_1
 10
-4.19762001193722
 20
-202.0430007247612
 30
0.0
  0
VERTEX
  5
719
  8
LAYER_1
 10
-4.018048420446769
 20
-202.2173497719133
 30
0.0
  0
VERTEX
  5
71A
  8
LAYER_1
 10
-3.832601466575691
 20
-202.3841447817189
 30
0.0
  0
VERTEX
  5
71B
  8
LAYER_1
 10
-3.641279150323986
 20
-202.543385754178
 30
0.0
  0
VERTEX
  5
71C
  8
LAYER_1
 10
-3.444081471691653
 20
-202.6950726892906
 30
0.0
  0
VERTEX
  5
71D
  8
LAYER_1
 10
-3.241008430678693
 20
-202.8392055870566
 30
0.0
  0
VERTEX
  5
71E
  8
LAYER_1
 10
-3.032060027285104
 20
-202.9757844474761
 30
0.0
  0
VERTEX
  5
71F
  8
LAYER_1
 10
-2.819521124658911
 20
-203.1044362316678
 30
0.0
  0
VERTEX
  5
720
  8
LAYER_1
 10
-2.605676585948133
 20
-203.2247879007503
 30
0.0
  0
VERTEX
  5
721
  8
LAYER_1
 10
-2.390526411152772
 20
-203.3368394547237
 30
0.0
  0
VERTEX
  5
722
  8
LAYER_1
 10
-2.174070600272827
 20
-203.440590893588
 30
0.0
  0
VERTEX
  5
723
  8
LAYER_1
 10
-1.956309153308297
 20
-203.5360422173431
 30
0.0
  0
VERTEX
  5
724
  8
LAYER_1
 10
-1.737242070259184
 20
-203.6231934259891
 30
0.0
  0
VERTEX
  5
725
  8
LAYER_1
 10
-1.516869351125487
 20
-203.7020445195259
 30
0.0
  0
VERTEX
  5
726
  8
LAYER_1
 10
-1.295190995907206
 20
-203.7725954979536
 30
0.0
  0
VERTEX
  5
727
  8
LAYER_1
 10
-1.072207004604341
 20
-203.8348463612721
 30
0.0
  0
VERTEX
  5
728
  8
LAYER_1
 10
-0.8479173772168922
 20
-203.8887971094815
 30
0.0
  0
VERTEX
  5
729
  8
LAYER_1
 10
-0.6223221137448594
 20
-203.9344477425818
 30
0.0
  0
VERTEX
  5
72A
  8
LAYER_1
 10
-0.3954212141882425
 20
-203.971798260573
 30
0.0
  0
VERTEX
  5
72B
  8
LAYER_1
 10
-0.1672146785470418
 20
-204.000848663455
 30
0.0
  0
VERTEX
  5
72C
  8
LAYER_1
 10
0.0622974931787427
 20
-204.0215989512278
 30
0.0
  0
VERTEX
  5
72D
  8
LAYER_1
 10
0.2931153009891112
 20
-204.0340491238915
 30
0.0
  0
VERTEX
  5
72E
  8
LAYER_1
 10
0.5252387448840635
 20
-204.0381991814461
 30
0.0
  0
VERTEX
  5
72F
  8
LAYER_1
 10
0.8624658935880195
 20
-204.029619287176
 30
0.0
  0
VERTEX
  5
730
  8
LAYER_1
 10
1.193724420191021
 20
-204.0038796043656
 30
0.0
  0
VERTEX
  5
731
  8
LAYER_1
 10
1.519014324693067
 20
-203.960980133015
 30
0.0
  0
VERTEX
  5
732
  8
LAYER_1
 10
1.838335607094158
 20
-203.9009208731241
 30
0.0
  0
VERTEX
  5
733
  8
LAYER_1
 10
2.151688267394295
 20
-203.823701824693
 30
0.0
  0
VERTEX
  5
734
  8
LAYER_1
 10
2.459072305593476
 20
-203.7293229877217
 30
0.0
  0
VERTEX
  5
735
  8
LAYER_1
 10
2.760487721691703
 20
-203.6177843622101
 30
0.0
  0
VERTEX
  5
736
  8
LAYER_1
 10
3.055934515688974
 20
-203.4890859481582
 30
0.0
  0
VERTEX
  5
737
  8
LAYER_1
 10
3.345412687585291
 20
-203.3432277455661
 30
0.0
  0
VERTEX
  5
738
  8
LAYER_1
 10
3.628922237380652
 20
-203.1802097544338
 30
0.0
  0
VERTEX
  5
739
  8
LAYER_1
 10
3.906463165075059
 20
-203.0000319747612
 30
0.0
  0
VERTEX
  5
73A
  8
LAYER_1
 10
4.17803547066851
 20
-202.8026944065484
 30
0.0
  0
VERTEX
  5
73B
  8
LAYER_1
 10
4.443639154161007
 20
-202.5881970497953
 30
0.0
  0
VERTEX
  5
73C
  8
LAYER_1
 10
4.703274215552548
 20
-202.356539904502
 30
0.0
  0
VERTEX
  5
73D
  8
LAYER_1
 10
4.956940654843134
 20
-202.1077229706684
 30
0.0
  0
VERTEX
  5
73E
  8
LAYER_1
 10
5.204638472032765
 20
-201.8417462482946
 30
0.0
  0
VERTEX
  5
73F
  8
LAYER_1
 10
5.441704681105071
 20
-201.5610344901091
 30
0.0
  0
VERTEX
  5
740
  8
LAYER_1
 10
5.66347629604368
 20
-201.2680124488403
 30
0.0
  0
VERTEX
  5
741
  8
LAYER_1
 10
5.869953316848592
 20
-200.9626801244883
 30
0.0
  0
VERTEX
  5
742
  8
LAYER_1
 10
6.061135743519806
 20
-200.6450375170532
 30
0.0
  0
VERTEX
  5
743
  8
LAYER_1
 10
6.237023576057323
 20
-200.3150846265348
 30
0.0
  0
VERTEX
  5
744
  8
LAYER_1
 10
6.397616814461143
 20
-199.9728214529331
 30
0.0
  0
VERTEX
  5
745
  8
LAYER_1
 10
6.542915458731266
 20
-199.6182479962483
 30
0.0
  0
VERTEX
  5
746
  8
LAYER_1
 10
6.672919508867691
 20
-199.2513642564802
 30
0.0
  0
VERTEX
  5
747
  8
LAYER_1
 10
6.787628964870421
 20
-198.8721702336289
 30
0.0
  0
VERTEX
  5
748
  8
LAYER_1
 10
6.887043826739452
 20
-198.4806659276944
 30
0.0
  0
VERTEX
  5
749
  8
LAYER_1
 10
6.971164094474787
 20
-198.0768513386766
 30
0.0
  0
VERTEX
  5
74A
  8
LAYER_1
 10
7.039989768076424
 20
-197.6607264665757
 30
0.0
  0
VERTEX
  5
74B
  8
LAYER_1
 10
7.093520847544363
 20
-197.2322913113915
 30
0.0
  0
VERTEX
  5
74C
  8
LAYER_1
 10
7.131757332878606
 20
-196.7915458731241
 30
0.0
  0
VERTEX
  5
74D
  8
LAYER_1
 10
7.154699224079152
 20
-196.3384901517735
 30
0.0
  0
VERTEX
  5
74E
  8
LAYER_1
 10
7.162346521146
 20
-195.8731241473397
 30
0.0
  0
VERTEX
  5
74F
  8
LAYER_1
 10
7.154792483799479
 20
-195.4255241196282
 30
0.0
  0
VERTEX
  5
750
  8
LAYER_1
 10
7.132130371759915
 20
-194.989954595839
 30
0.0
  0
VERTEX
  5
751
  8
LAYER_1
 10
7.094360185027309
 20
-194.566415575972
 30
0.0
  0
VERTEX
  5
752
  8
LAYER_1
 10
7.041481923601662
 20
-194.1549070600273
 30
0.0
  0
VERTEX
  5
753
  8
LAYER_1
 10
6.97349558748297
 20
-193.7554290480048
 30
0.0
  0
VERTEX
  5
754
  8
LAYER_1
 10
6.890401176671238
 20
-193.3679815399045
 30
0.0
  0
VERTEX
  5
755
  8
LAYER_1
 10
6.792198691166464
 20
-192.9925645357265
 30
0.0
  0
VERTEX
  5
756
  8
LAYER_1
 10
6.678888130968646
 20
-192.6291780354707
 30
0.0
  0
VERTEX
  5
757
  8
LAYER_1
 10
6.550469496077787
 20
-192.2778220391371
 30
0.0
  0
VERTEX
  5
758
  8
LAYER_1
 10
6.406942786493884
 20
-191.9384965467258
 30
0.0
  0
VERTEX
  5
759
  8
LAYER_1
 10
6.24830800221694
 20
-191.6112015582367
 30
0.0
  0
VERTEX
  5
75A
  8
LAYER_1
 10
6.074565143246954
 20
-191.2959370736698
 30
0.0
  0
VERTEX
  5
75B
  8
LAYER_1
 10
5.885714209583925
 20
-190.9927030930253
 30
0.0
  0
VERTEX
  5
75C
  8
LAYER_1
 10
5.681755201227855
 20
-190.7014996163029
 30
0.0
  0
VERTEX
  5
75D
  8
LAYER_1
 10
5.462688118178741
 20
-190.4223266435027
 30
0.0
  0
VERTEX
  5
75E
  8
LAYER_1
 10
5.228512960436586
 20
-190.1551841746248
 30
0.0
  0
VERTEX
  5
75F
  8
LAYER_1
 10
4.982866857094157
 20
-189.9022171832366
 30
0.0
  0
VERTEX
  5
760
  8
LAYER_1
 10
4.729386937244225
 20
-189.6655706429058
 30
0.0
  0
VERTEX
  5
761
  8
LAYER_1
 10
4.46807320088679
 20
-189.4452445536323
 30
0.0
  0
VERTEX
  5
762
  8
LAYER_1
 10
4.198925648021852
 20
-189.2412389154161
 30
0.0
  0
VERTEX
  5
763
  8
LAYER_1
 10
3.921944278649411
 20
-189.0535537282571
 30
0.0
  0
VERTEX
  5
764
  8
LAYER_1
 10
3.637129092769465
 20
-188.8821889921555
 30
0.0
  0
VERTEX
  5
765
  8
LAYER_1
 10
3.344480090382016
 20
-188.7271447071112
 30
0.0
  0
VERTEX
  5
766
  8
LAYER_1
 10
3.043997271487064
 20
-188.5884208731241
 30
0.0
  0
VERTEX
  5
767
  8
LAYER_1
 10
2.735680636084608
 20
-188.4660174901944
 30
0.0
  0
VERTEX
  5
768
  8
LAYER_1
 10
2.419530184174649
 20
-188.3599345583219
 30
0.0
  0
VERTEX
  5
769
  8
LAYER_1
 10
2.095545915757187
 20
-188.2701720775068
 30
0.0
  0
VERTEX
  5
76A
  8
LAYER_1
 10
1.763727830832221
 20
-188.196730047749
 30
0.0
  0
VERTEX
  5
76B
  8
LAYER_1
 10
1.424075929399752
 20
-188.1396084690484
 30
0.0
  0
VERTEX
  5
76C
  8
LAYER_1
 10
1.076590211459779
 20
-188.0988073414051
 30
0.0
  0
VERTEX
  5
76D
  8
LAYER_1
 10
0.721270677012303
 20
-188.0743266648192
 30
0.0
  0
VERTEX
  5
76E
  8
LAYER_1
 10
0.3581173260573234
 20
-188.0661664392906
 30
0.0
  0
VERTEX
  5
76F
  8
LAYER_1
 10
-0.0025180124488156
 20
-188.0743266648192
 30
0.0
  0
VERTEX
  5
770
  8
LAYER_1
 10
-0.3562521316507255
 20
-188.0988073414051
 30
0.0
  0
VERTEX
  5
771
  8
LAYER_1
 10
-0.7030850315484061
 20
-188.1396084690484
 30
0.0
  0
VERTEX
  5
772
  8
LAYER_1
 10
-1.043016712141858
 20
-188.196730047749
 30
0.0
  0
VERTEX
  5
773
  8
LAYER_1
 10
-1.37604717343108
 20
-188.2701720775068
 30
0.0
  0
VERTEX
  5
774
  8
LAYER_1
 10
-1.702176415416073
 20
-188.3599345583219
 30
0.0
  0
VERTEX
  5
775
  8
LAYER_1
 10
-2.021404438096837
 20
-188.4660174901944
 30
0.0
  0
VERTEX
  5
776
  8
LAYER_1
 10
-2.333731241473372
 20
-188.5884208731241
 30
0.0
  0
VERTEX
  5
777
  8
LAYER_1
 10
-2.639156825545678
 20
-188.7271447071112
 30
0.0
  0
VERTEX
  5
778
  8
LAYER_1
 10
-2.937681190313755
 20
-188.8821889921555
 30
0.0
  0
VERTEX
  5
779
  8
LAYER_1
 10
-3.229304335777602
 20
-189.0535537282571
 30
0.0
  0
VERTEX
  5
77A
  8
LAYER_1
 10
-3.51402626193722
 20
-189.2412389154161
 30
0.0
  0
VERTEX
  5
77B
  8
LAYER_1
 10
-3.791846968792609
 20
-189.4452445536323
 30
0.0
  0
VERTEX
  5
77C
  8
LAYER_1
 10
-4.062766456343769
 20
-189.6655706429058
 30
0.0
  0
VERTEX
  5
77D
  8
LAYER_1
 10
-4.326784724590699
 20
-189.9022171832366
 30
0.0
  0
VERTEX
  5
77E
  8
LAYER_1
 10
-4.5839017735334
 20
-190.1551841746248
 30
0.0
  0
VERTEX
  5
77F
  8
LAYER_1
 10
-4.829641136596155
 20
-190.4213940462994
 30
0.0
  0
VERTEX
  5
780
  8
LAYER_1
 10
-5.05952634720325
 20
-190.6977692274897
 30
0.0
  0
VERTEX
  5
781
  8
LAYER_1
 10
-5.273557405354682
 20
-190.9843097181958
 30
0.0
  0
VERTEX
  5
782
  8
LAYER_1
 10
-5.471734311050453
 20
-191.2810155184174
 30
0.0
  0
VERTEX
  5
783
  8
LAYER_1
 10
-5.654057064290562
 20
-191.5878866281548
 30
0.0
  0
VERTEX
  5
784
  8
LAYER_1
 10
-5.820525665075009
 20
-191.9049230474079
 30
0.0
  0
VERTEX
  5
785
  8
LAYER_1
 10
-5.971140113403795
 20
-192.2321247761766
 30
0.0
  0
VERTEX
  5
786
  8
LAYER_1
 10
-6.105900409276919
 20
-192.5694918144611
 30
0.0
  0
VERTEX
  5
787
  8
LAYER_1
 10
-6.224806552694382
 20
-192.9170241622613
 30
0.0
  0
VERTEX
  5
788
  8
LAYER_1
 10
-6.327858543656182
 20
-193.2747218195771
 30
0.0
  0
VERTEX
  5
789
  8
LAYER_1
 10
-6.415056382162321
 20
-193.6425847864086
 30
0.0
  0
VERTEX
  5
78A
  8
LAYER_1
 10
-6.486400068212799
 20
-194.0206130627558
 30
0.0
  0
VERTEX
  5
78B
  8
LAYER_1
 10
-6.541889601807615
 20
-194.4088066486187
 30
0.0
  0
VERTEX
  5
78C
  8
LAYER_1
 10
-6.581524982946769
 20
-194.8071655439973
 30
0.0
  0
VERTEX
  5
78D
  8
LAYER_1
 10
-6.605306211630261
 20
-195.2156897488915
 30
0.0
  0
SEQEND
  5
EA0
  8
LAYER_1
  0
POLYLINE
  5
7B
  8
LAYER_1
 66
     1
 10
0.0
 20
0.0
 30
0.0
 70
     1
  0
VERTEX
  5
78E
  8
LAYER_1
 10
-104.5109993178718
 20
-157.3693905949675
 30
0.0
  0
VERTEX
  5
78F
  8
LAYER_1
 10
-104.5109993178718
 20
-153.2391041011067
 30
0.0
  0
VERTEX
  5
790
  8
LAYER_1
 10
-81.8541098226467
 20
-153.2391041011067
 30
0.0
  0
VERTEX
  5
791
  8
LAYER_1
 10
-81.8541098226467
 20
-156.5815324776415
 30
0.0
  0
VERTEX
  5
792
  8
LAYER_1
 10
-82.27168022041273
 20
-157.0353342767547
 30
0.0
  0
VERTEX
  5
793
  8
LAYER_1
 10
-82.68878431957711
 20
-157.5074149810521
 30
0.0
  0
VERTEX
  5
794
  8
LAYER_1
 10
-83.10542212013988
 20
-157.9977745905337
 30
0.0
  0
VERTEX
  5
795
  8
LAYER_1
 10
-83.521593622101
 20
-158.5064131051995
 30
0.0
  0
VERTEX
  5
796
  8
LAYER_1
 10
-83.93729882546049
 20
-159.0333305250494
 30
0.0
  0
VERTEX
  5
797
  8
LAYER_1
 10
-84.35253773021833
 20
-159.5785268500835
 30
0.0
  0
VERTEX
  5
798
  8
LAYER_1
 10
-84.76731033637455
 20
-160.1420020803018
 30
0.0
  0
VERTEX
  5
799
  8
LAYER_1
 10
-85.18161664392912
 20
-160.7237562157043
 30
0.0
  0
VERTEX
  5
79A
  8
LAYER_1
 10
-85.59545665288205
 20
-161.3237892562909
 30
0.0
  0
VERTEX
  5
79B
  8
LAYER_1
 10
-86.00883036323333
 20
-161.9421012020617
 30
0.0
  0
VERTEX
  5
79C
  8
LAYER_1
 10
-86.421737774983
 20
-162.5786920530167
 30
0.0
  0
VERTEX
  5
79D
  8
LAYER_1
 10
-86.83417888813102
 20
-163.2335618091558
 30
0.0
  0
VERTEX
  5
79E
  8
LAYER_1
 10
-87.24615370267742
 20
-163.9067104704792
 30
0.0
  0
VERTEX
  5
79F
  8
LAYER_1
 10
-87.65766221862216
 20
-164.5981380369867
 30
0.0
  0
VERTEX
  5
7A0
  8
LAYER_1
 10
-88.06870443596529
 20
-165.3078445086783
 30
0.0
  0
VERTEX
  5
7A1
  8
LAYER_1
 10
-88.47928035470675
 20
-166.0358298855542
 30
0.0
  0
VERTEX
  5
7A2
  8
LAYER_1
 10
-88.88379439162692
 20
-166.7742603511067
 30
0.0
  0
VERTEX
  5
7A3
  8
LAYER_1
 10
-89.27665096350619
 20
-167.5153020888284
 30
0.0
  0
VERTEX
  5
7A4
  8
LAYER_1
 10
-89.65785007034452
 20
-168.2589550987192
 30
0.0
  0
VERTEX
  5
7A5
  8
LAYER_1
 10
-90.02739171214193
 20
-169.0052193807792
 30
0.0
  0
VERTEX
  5
7A6
  8
LAYER_1
 10
-90.38527588889842
 20
-169.7540949350085
 30
0.0
  0
VERTEX
  5
7A7
  8
LAYER_1
 10
-90.73150260061396
 20
-170.5055817614068
 30
0.0
  0
VERTEX
  5
7A8
  8
LAYER_1
 10
-91.06607184728861
 20
-171.2596798599744
 30
0.0
  0
VERTEX
  5
7A9
  8
LAYER_1
 10
-91.38898362892232
 20
-172.0163892307111
 30
0.0
  0
VERTEX
  5
7AA
  8
LAYER_1
 10
-91.70023794551508
 20
-172.775709873617
 30
0.0
  0
VERTEX
  5
7AB
  8
LAYER_1
 10
-91.99983479706691
 20
-173.537641788692
 30
0.0
  0
VERTEX
  5
7AC
  8
LAYER_1
 10
-92.28777418357784
 20
-174.3021849759362
 30
0.0
  0
VERTEX
  5
7AD
  8
LAYER_1
 10
-92.56405610504783
 20
-175.0693394353495
 30
0.0
  0
VERTEX
  5
7AE
  8
LAYER_1
 10
-92.82868056147689
 20
-175.8391051669321
 30
0.0
  0
VERTEX
  5
7AF
  8
LAYER_1
 10
-93.08164755286501
 20
-176.6114821706838
 30
0.0
  0
VERTEX
  5
7B0
  8
LAYER_1
 10
-93.32295707921222
 20
-177.3864704466047
 30
0.0
  0
VERTEX
  5
7B1
  8
LAYER_1
 10
-93.5526091405185
 20
-178.1640699946947
 30
0.0
  0
VERTEX
  5
7B2
  8
LAYER_1
 10
-93.7101248081515
 20
-178.716447318194
 30
0.0
  0
VERTEX
  5
7B3
  8
LAYER_1
 10
-93.86036621759898
 20
-179.2753528221162
 30
0.0
  0
VERTEX
  5
7B4
  8
LAYER_1
 10
-94.00333336886091
 20
-179.8407865064614
 30
0.0
  0
VERTEX
  5
7B5
  8
LAYER_1
 10
-94.13902626193732
 20
-180.4127483712295
 30
0.0
  0
VERTEX
  5
7B6
  8
LAYER_1
 10
-94.26744489682817
 20
-180.9912384164205
 30
0.0
  0
VERTEX
  5
7B7
  8
LAYER_1
 10
-94.3885892735335
 20
-181.5762566420344
 30
0.0
  0
VERTEX
  5
7B8
  8
LAYER_1
 10
-94.50245939205328
 20
-182.1678030480712
 30
0.0
  0
VERTEX
  5
7B9
  8
LAYER_1
 10
-94.60905525238752
 20
-182.765877634531
 30
0.0
  0
VERTEX
  5
7BA
  8
LAYER_1
 10
-94.70837685453623
 20
-183.3704804014137
 30
0.0
  0
VERTEX
  5
7BB
  8
LAYER_1
 10
-94.8004241984994
 20
-183.9816113487192
 30
0.0
  0
VERTEX
  5
7BC
  8
LAYER_1
 10
-94.88519728427701
 20
-184.5992704764477
 30
0.0
  0
VERTEX
  5
7BD
  8
LAYER_1
 10
-94.96269611186912
 20
-185.2234577845992
 30
0.0
  0
VERTEX
  5
7BE
  8
LAYER_1
 10
-95.03292068127564
 20
-185.8541732731736
 30
0.0
  0
VERTEX
  5
7BF
  8
LAYER_1
 10
-95.09587099249666
 20
-186.4914169421708
 30
0.0
  0
VERTEX
  5
7C0
  8
LAYER_1
 10
-95.15154704553213
 20
-187.135188791591
 30
0.0
  0
VERTEX
  5
7C1
  8
LAYER_1
 10
-95.19994884038208
 20
-187.7854888214341
 30
0.0
  0
VERTEX
  5
7C2
  8
LAYER_1
 10
-99.61672919508877
 20
-187.7854888214341
 30
0.0
  0
VERTEX
  5
7C3
  8
LAYER_1
 10
-99.60199415927704
 20
-187.2624883098379
 30
0.0
  0
VERTEX
  5
7C4
  8
LAYER_1
 10
-99.5756949181447
 20
-186.7260583985146
 30
0.0
  0
VERTEX
  5
7C5
  8
LAYER_1
 10
-99.53783147169177
 20
-186.1761990874641
 30
0.0
  0
VERTEX
  5
7C6
  8
LAYER_1
 10
-99.48840381991823
 20
-185.6129103766865
 30
0.0
  0
VERTEX
  5
7C7
  8
LAYER_1
 10
-99.4274119628241
 20
-185.0361922661817
 30
0.0
  0
VERTEX
  5
7C8
  8
LAYER_1
 10
-99.35485590040938
 20
-184.4460447559498
 30
0.0
  0
VERTEX
  5
7C9
  8
LAYER_1
 10
-99.27073563267405
 20
-183.8424678459907
 30
0.0
  0
VERTEX
  5
7CA
  8
LAYER_1
 10
-99.1750511596181
 20
-183.2254615363045
 30
0.0
  0
VERTEX
  5
7CB
  8
LAYER_1
 10
-99.06780248124156
 20
-182.5950258268911
 30
0.0
  0
VERTEX
  5
7CC
  8
LAYER_1
 10
-98.94898959754443
 20
-181.9511607177506
 30
0.0
  0
VERTEX
  5
7CD
  8
LAYER_1
 10
-98.8186125085267
 20
-181.2938662088829
 30
0.0
  0
VERTEX
  5
7CE
  8
LAYER_1
 10
-98.67667121418836
 20
-180.6231423002881
 30
0.0
  0
VERTEX
  5
7CF
  8
LAYER_1
 10
-98.52316571452941
 20
-179.9389889919661
 30
0.0
  0
VERTEX
  5
7D0
  8
LAYER_1
 10
-98.35809600954987
 20
-179.2414062839171
 30
0.0
  0
VERTEX
  5
7D1
  8
LAYER_1
 10
-98.18146209924973
 20
-178.5303941761408
 30
0.0
  0
VERTEX
  5
7D2
  8
LAYER_1
 10
-97.99326398362899
 20
-177.8059526686374
 30
0.0
  0
VERTEX
  5
7D3
  8
LAYER_1
 10
-97.79401459114945
 20
-177.0764285063761
 30
0.0
  0
VERTEX
  5
7D4
  8
LAYER_1
 10
-97.58422685027293
 20
-176.3501684343263
 30
0.0
  0
VERTEX
  5
7D5
  8
LAYER_1
 10
-97.3639007609994
 20
-175.627172452488
 30
0.0
  0
VERTEX
  5
7D6
  8
LAYER_1
 10
-97.13303632332887
 20
-174.9074405608611
 30
0.0
  0
VERTEX
  5
7D7
  8
LAYER_1
 10
-96.89163353726133
 20
-174.1909727594457
 30
0.0
  0
VERTEX
  5
7D8
  8
LAYER_1
 10
-96.6396924027968
 20
-173.4777690482418
 30
0.0
  0
VERTEX
  5
7D9
  8
LAYER_1
 10
-96.37721291993526
 20
-172.7678294272493
 30
0.0
  0
VERTEX
  5
7DA
  8
LAYER_1
 10
-96.10419508867673
 20
-172.0611538964682
 30
0.0
  0
VERTEX
  5
7DB
  8
LAYER_1
 10
-95.8206389090212
 20
-171.3577424558987
 30
0.0
  0
VERTEX
  5
7DC
  8
LAYER_1
 10
-95.52654438096869
 20
-170.6575951055405
 30
0.0
  0
VERTEX
  5
7DD
  8
LAYER_1
 10
-95.22191150451917
 20
-169.9607118453939
 30
0.0
  0
VERTEX
  5
7DE
  8
LAYER_1
 10
-94.90674027967265
 20
-169.2670926754587
 30
0.0
  0
VERTEX
  5
7DF
  8
LAYER_1
 10
-94.58103070642912
 20
-168.5767375957349
 30
0.0
  0
VERTEX
  5
7E0
  8
LAYER_1
 10
-94.2447827847886
 20
-167.8896466062226
 30
0.0
  0
VERTEX
  5
7E1
  8
LAYER_1
 10
-93.89799651475107
 20
-167.2058197069218
 30
0.0
  0
VERTEX
  5
7E2
  8
LAYER_1
 10
-93.54067189631657
 20
-166.5252568978325
 30
0.0
  0
VERTEX
  5
7E3
  8
LAYER_1
 10
-93.17663257801848
 20
-165.8529942038522
 30
0.0
  0
VERTEX
  5
7E4
  8
LAYER_1
 10
-92.80970220839023
 20
-165.1940676498788
 30
0.0
  0
VERTEX
  5
7E5
  8
LAYER_1
 10
-92.43988078743186
 20
-164.5484772359123
 30
0.0
  0
VERTEX
  5
7E6
  8
LAYER_1
 10
-92.0671683151433
 20
-163.9162229619525
 30
0.0
  0
VERTEX
  5
7E7
  8
LAYER_1
 10
-91.69156479152463
 20
-163.2973048279996
 30
0.0
  0
VERTEX
  5
7E8
  8
LAYER_1
 10
-91.31307021657578
 20
-162.6917228340535
 30
0.0
  0
VERTEX
  5
7E9
  8
LAYER_1
 10
-90.93168459029678
 20
-162.0994769801142
 30
0.0
  0
VERTEX
  5
7EA
  8
LAYER_1
 10
-90.54740791268765
 20
-161.5205672661817
 30
0.0
  0
VERTEX
  5
7EB
  8
LAYER_1
 10
-90.16024018374836
 20
-160.9549936922561
 30
0.0
  0
VERTEX
  5
7EC
  8
LAYER_1
 10
-89.7701814034789
 20
-160.4027562583373
 30
0.0
  0
VERTEX
  5
7ED
  8
LAYER_1
 10
-89.3772315718793
 20
-159.8638549644253
 30
0.0
  0
VERTEX
  5
7EE
  8
LAYER_1
 10
-88.98139068894956
 20
-159.3382898105201
 30
0.0
  0
VERTEX
  5
7EF
  8
LAYER_1
 10
-88.58265875468966
 20
-158.8260607966217
 30
0.0
  0
VERTEX
  5
7F0
  8
LAYER_1
 10
-88.18103576909962
 20
-158.3271679227302
 30
0.0
  0
VERTEX
  5
7F1
  8
LAYER_1
 10
-87.77652173217943
 20
-157.8416111888454
 30
0.0
  0
VERTEX
  5
7F2
  8
LAYER_1
 10
-87.3691166439291
 20
-157.3693905949675
 30
0.0
  0
SEQEND
  5
EA1
  8
LAYER_1
  0
POLYLINE
  5
7C
  8
LAYER_1
 66
     1
 10
0.0
 20
0.0
 30
0.0
 70
     1
  0
VERTEX
  5
7F3
  8
LAYER_1
 10
-166.7117817962667
 20
-91.06807480010387
 30
0.0
  0
VERTEX
  5
7F4
  8
LAYER_1
 10
-167.0406155701412
 20
-90.94245395682285
 30
0.0
  0
VERTEX
  5
7F5
  8
LAYER_1
 10
-167.3586312164577
 20
-90.81030493311889
 30
0.0
  0
VERTEX
  5
7F6
  8
LAYER_1
 10
-167.6658287352162
 20
-90.67162772899201
 30
0.0
  0
VERTEX
  5
7F7
  8
LAYER_1
 10
-167.9622081264167
 20
-90.52642234444221
 30
0.0
  0
VERTEX
  5
7F8
  8
LAYER_1
 10
-168.2477693900593
 20
-90.3746887794695
 30
0.0
  0
VERTEX
  5
7F9
  8
LAYER_1
 10
-168.5225125261439
 20
-90.21642703407386
 30
0.0
  0
VERTEX
  5
7FA
  8
LAYER_1
 10
-168.7864375346705
 20
-90.0516371082553
 30
0.0
  0
VERTEX
  5
7FB
  8
LAYER_1
 10
-169.0395444156391
 20
-89.88031900201383
 30
0.0
  0
VERTEX
  5
7FC
  8
LAYER_1
 10
-169.2818331690498
 20
-89.70247271534944
 30
0.0
  0
VERTEX
  5
7FD
  8
LAYER_1
 10
-169.5133037949024
 20
-89.51809824826213
 30
0.0
  0
VERTEX
  5
7FE
  8
LAYER_1
 10
-169.7339562931971
 20
-89.3271956007519
 30
0.0
  0
VERTEX
  5
7FF
  8
LAYER_1
 10
-169.9437906639338
 20
-89.12976477281876
 30
0.0
  0
VERTEX
  5
800
  8
LAYER_1
 10
-170.1428069071125
 20
-88.9258057644627
 30
0.0
  0
VERTEX
  5
801
  8
LAYER_1
 10
-170.3310050227333
 20
-88.7153185756837
 30
0.0
  0
VERTEX
  5
802
  8
LAYER_1
 10
-170.508385010796
 20
-88.49830320648178
 30
0.0
  0
VERTEX
  5
803
  8
LAYER_1
 10
-170.6749468713008
 20
-88.27475965685694
 30
0.0
  0
VERTEX
  5
804
  8
LAYER_1
 10
-170.8310636431289
 20
-88.04515422541084
 30
0.0
  0
VERTEX
  5
805
  8
LAYER_1
 10
-170.9771083651616
 20
-87.80995321074508
 30
0.0
  0
VERTEX
  5
806
  8
LAYER_1
 10
-171.113081037399
 20
-87.56915661285967
 30
0.0
  0
VERTEX
  5
807
  8
LAYER_1
 10
-171.238981659841
 20
-87.32276443175462
 30
0.0
  0
VERTEX
  5
808
  8
LAYER_1
 10
-171.3548102324877
 20
-87.07077666742993
 30
0.0
  0
VERTEX
  5
809
  8
LAYER_1
 10
-171.460566755339
 20
-86.8131933198856
 30
0.0
  0
VERTEX
  5
80A
  8
LAYER_1
 10
-171.5562512283949
 20
-86.55001438912161
 30
0.0
  0
VERTEX
  5
80B
  8
LAYER_1
 10
-171.6418636516555
 20
-86.28123987513798
 30
0.0
  0
VERTEX
  5
80C
  8
LAYER_1
 10
-171.7174040251207
 20
-86.00686977793471
 30
0.0
  0
VERTEX
  5
80D
  8
LAYER_1
 10
-171.7828723487906
 20
-85.72690409751179
 30
0.0
  0
VERTEX
  5
80E
  8
LAYER_1
 10
-171.8382686226651
 20
-85.44134283386923
 30
0.0
  0
VERTEX
  5
80F
  8
LAYER_1
 10
-171.8835928467442
 20
-85.15018598700702
 30
0.0
  0
VERTEX
  5
810
  8
LAYER_1
 10
-171.9188450210279
 20
-84.85343355692517
 30
0.0
  0
VERTEX
  5
811
  8
LAYER_1
 10
-171.9440251455163
 20
-84.55108554362366
 30
0.0
  0
VERTEX
  5
812
  8
LAYER_1
 10
-171.9591332202094
 20
-84.2431419471025
 30
0.0
  0
VERTEX
  5
813
  8
LAYER_1
 10
-171.9641692451071
 20
-83.92960276736171
 30
0.0
  0
VERTEX
  5
814
  8
LAYER_1
 10
-171.9534443772694
 20
-83.45686924502199
 30
0.0
  0
VERTEX
  5
815
  8
LAYER_1
 10
-171.9212697737564
 20
-82.9936482141557
 30
0.0
  0
VERTEX
  5
816
  8
LAYER_1
 10
-171.8676454345682
 20
-82.53993967476279
 30
0.0
  0
VERTEX
  5
817
  8
LAYER_1
 10
-171.7925713597046
 20
-82.0957436268433
 30
0.0
  0
VERTEX
  5
818
  8
LAYER_1
 10
-171.6960475491657
 20
-81.66106007039718
 30
0.0
  0
VERTEX
  5
819
  8
LAYER_1
 10
-171.5780740029516
 20
-81.23588900542447
 30
0.0
  0
VERTEX
  5
81A
  8
LAYER_1
 10
-171.438650721062
 20
-80.82023043192515
 30
0.0
  0
VERTEX
  5
81B
  8
LAYER_1
 10
-171.2777777034972
 20
-80.41408434989924
 30
0.0
  0
VERTEX
  5
81C
  8
LAYER_1
 10
-171.0954549502571
 20
-80.01745075934672
 30
0.0
  0
VERTEX
  5
81D
  8
LAYER_1
 10
-170.8916824613417
 20
-79.63032966026759
 30
0.0
  0
VERTEX
  5
81E
  8
LAYER_1
 10
-170.666460236751
 20
-79.25272105266185
 30
0.0
  0
VERTEX
  5
81F
  8
LAYER_1
 10
-170.419788276485
 20
-78.88462493652952
 30
0.0
  0
VERTEX
  5
820
  8
LAYER_1
 10
-170.1516665805436
 20
-78.52604131187059
 30
0.0
  0
VERTEX
  5
821
  8
LAYER_1
 10
-169.862095148927
 20
-78.17697017868505
 30
0.0
  0
VERTEX
  5
822
  8
LAYER_1
 10
-169.551073981635
 20
-77.8374115369729
 30
0.0
  0
VERTEX
  5
823
  8
LAYER_1
 10
-169.2186030786678
 20
-77.50736538673416
 30
0.0
  0
VERTEX
  5
824
  8
LAYER_1
 10
-168.868319569118
 20
-77.1922407917478
 30
0.0
  0
VERTEX
  5
825
  8
LAYER_1
 10
-168.5038605820784
 20
-76.89744681579282
 30
0.0
  0
VERTEX
  5
826
  8
LAYER_1
 10
-168.1252261175491
 20
-76.62298345886921
 30
0.0
  0
VERTEX
  5
827
  8
LAYER_1
 10
-167.73241617553
 20
-76.36885072097698
 30
0.0
  0
VERTEX
  5
828
  8
LAYER_1
 10
-167.3254307560211
 20
-76.13504860211614
 30
0.0
  0
VERTEX
  5
829
  8
LAYER_1
 10
-166.9042698590225
 20
-75.92157710228668
 30
0.0
  0
VERTEX
  5
82A
  8
LAYER_1
 10
-166.4689334845341
 20
-75.72843622148858
 30
0.0
  0
VERTEX
  5
82B
  8
LAYER_1
 10
-166.0194216325559
 20
-75.55562595972188
 30
0.0
  0
VERTEX
  5
82C
  8
LAYER_1
 10
-165.5557343030879
 20
-75.40314631698655
 30
0.0
  0
VERTEX
  5
82D
  8
LAYER_1
 10
-165.0778714961303
 20
-75.27099729328259
 30
0.0
  0
VERTEX
  5
82E
  8
LAYER_1
 10
-164.5858332116828
 20
-75.15917888861
 30
0.0
  0
VERTEX
  5
82F
  8
LAYER_1
 10
-164.0796194497455
 20
-75.06769110296881
 30
0.0
  0
VERTEX
  5
830
  8
LAYER_1
 10
-163.5592302103185
 20
-74.99653393635899
 30
0.0
  0
VERTEX
  5
831
  8
LAYER_1
 10
-163.0246654934018
 20
-74.94570738878053
 30
0.0
  0
VERTEX
  5
832
  8
LAYER_1
 10
-162.4759252989952
 20
-74.91521146023346
 30
0.0
  0
VERTEX
  5
833
  8
LAYER_1
 10
-161.9130096270989
 20
-74.90504615071778
 30
0.0
  0
VERTEX
  5
834
  8
LAYER_1
 10
-161.3470163844317
 20
-74.91544460953429
 30
0.0
  0
VERTEX
  5
835
  8
LAYER_1
 10
-160.7950120998137
 20
-74.94663998598381
 30
0.0
  0
VERTEX
  5
836
  8
LAYER_1
 10
-160.2569967732448
 20
-74.99863228006635
 30
0.0
  0
VERTEX
  5
837
  8
LAYER_1
 10
-159.7329704047251
 20
-75.0714214917819
 30
0.0
  0
VERTEX
  5
838
  8
LAYER_1
 10
-159.2229329942544
 20
-75.16500762113048
 30
0.0
  0
VERTEX
  5
839
  8
LAYER_1
 10
-158.7268845418328
 20
-75.27939066811206
 30
0.0
  0
VERTEX
  5
83A
  8
LAYER_1
 10
-158.2448250474604
 20
-75.41457063272665
 30
0.0
  0
VERTEX
  5
83B
  8
LAYER_1
 10
-157.7767545111371
 20
-75.57054751497427
 30
0.0
  0
VERTEX
  5
83C
  8
LAYER_1
 10
-157.3226729328628
 20
-75.7473213148549
 30
0.0
  0
VERTEX
  5
83D
  8
LAYER_1
 10
-156.8825803126377
 20
-75.94489203236853
 30
0.0
  0
VERTEX
  5
83E
  8
LAYER_1
 10
-156.4564766504617
 20
-76.1632596675152
 30
0.0
  0
VERTEX
  5
83F
  8
LAYER_1
 10
-156.0443619463349
 20
-76.40242422029488
 30
0.0
  0
VERTEX
  5
840
  8
LAYER_1
 10
-155.6462362002571
 20
-76.66238569070757
 30
0.0
  0
VERTEX
  5
841
  8
LAYER_1
 10
-155.2620994122285
 20
-76.94314407875325
 30
0.0
  0
VERTEX
  5
842
  8
LAYER_1
 10
-154.8919515822489
 20
-77.24469938443198
 30
0.0
  0
VERTEX
  5
843
  8
LAYER_1
 10
-154.5357927103185
 20
-77.56705160774371
 30
0.0
  0
VERTEX
  5
844
  8
LAYER_1
 10
-154.197539704691
 20
-77.90432538630782
 30
0.0
  0
VERTEX
  5
845
  8
LAYER_1
 10
-153.88110947362
 20
-78.25064535774371
 30
0.0
  0
VERTEX
  5
846
  8
LAYER_1
 10
-153.5865020171057
 20
-78.60601152205135
 30
0.0
  0
VERTEX
  5
847
  8
LAYER_1
 10
-153.313717335148
 20
-78.97042387923074
 30
0.0
  0
VERTEX
  5
848
  8
LAYER_1
 10
-153.0627554277469
 20
-79.3438824292819
 30
0.0
  0
VERTEX
  5
849
  8
LAYER_1
 10
-152.8336162949024
 20
-79.72638717220482
 30
0.0
  0
VERTEX
  5
84A
  8
LAYER_1
 10
-152.6262999366146
 20
-80.11793810799949
 30
0.0
  0
VERTEX
  5
84B
  8
LAYER_1
 10
-152.4408063528833
 20
-80.51853523666594
 30
0.0
  0
VERTEX
  5
84C
  8
LAYER_1
 10
-152.2771355437087
 20
-80.92817855820414
 30
0.0
  0
VERTEX
  5
84D
  8
LAYER_1
 10
-152.1352875090907
 20
-81.3468680726141
 30
0.0
  0
VERTEX
  5
84E
  8
LAYER_1
 10
-152.0152622490293
 20
-81.77460377989581
 30
0.0
  0
VERTEX
  5
84F
  8
LAYER_1
 10
-151.9170597635245
 20
-82.21138568004929
 30
0.0
  0
VERTEX
  5
850
  8
LAYER_1
 10
-151.8406800525764
 20
-82.65721377307455
 30
0.0
  0
VERTEX
  5
851
  8
LAYER_1
 10
-151.7861231161848
 20
-83.11208805897154
 30
0.0
  0
VERTEX
  5
852
  8
LAYER_1
 10
-151.7533889543499
 20
-83.57600853774031
 30
0.0
  0
VERTEX
  5
853
  8
LAYER_1
 10
-151.7424775670716
 20
-84.04897520938081
 30
0.0
  0
VERTEX
  5
854
  8
LAYER_1
 10
-151.7474669621091
 20
-84.35090355394084
 30
0.0
  0
VERTEX
  5
855
  8
LAYER_1
 10
-151.7624351472217
 20
-84.64788913332352
 30
0.0
  0
VERTEX
  5
856
  8
LAYER_1
 10
-151.7873821224093
 20
-84.93993194752883
 30
0.0
  0
VERTEX
  5
857
  8
LAYER_1
 10
-151.8223078876719
 20
-85.2270319965568
 30
0.0
  0
VERTEX
  5
858
  8
LAYER_1
 10
-151.8672124430095
 20
-85.50918928040741
 30
0.0
  0
VERTEX
  5
859
  8
LAYER_1
 10
-151.9220957884222
 20
-85.78640379908067
 30
0.0
  0
VERTEX
  5
85A
  8
LAYER_1
 10
-151.9869579239099
 20
-86.05867555257657
 30
0.0
  0
VERTEX
  5
85B
  8
LAYER_1
 10
-152.0617988494727
 20
-86.32600454089513
 30
0.0
  0
VERTEX
  5
85C
  8
LAYER_1
 10
-152.1466185651105
 20
-86.58839076403633
 30
0.0
  0
VERTEX
  5
85D
  8
LAYER_1
 10
-152.2414170708233
 20
-86.84583422200018
 30
0.0
  0
VERTEX
  5
85E
  8
LAYER_1
 10
-152.3461943666111
 20
-87.09833491478668
 30
0.0
  0
VERTEX
  5
85F
  8
LAYER_1
 10
-152.460950452474
 20
-87.34589284239581
 30
0.0
  0
VERTEX
  5
860
  8
LAYER_1
 10
-152.585685328412
 20
-87.5885080048276
 30
0.0
  0
VERTEX
  5
861
  8
LAYER_1
 10
-152.7203989944249
 20
-87.82618040208204
 30
0.0
  0
VERTEX
  5
862
  8
LAYER_1
 10
-152.8650914505129
 20
-88.05891003415913
 30
0.0
  0
VERTEX
  5
863
  8
LAYER_1
 10
-153.019762696676
 20
-88.28669690105886
 30
0.0
  0
VERTEX
  5
864
  8
LAYER_1
 10
-153.1845992523546
 20
-88.50879492501862
 30
0.0
  0
VERTEX
  5
865
  8
LAYER_1
 10
-153.3597876369897
 20
-88.72445802827578
 30
0.0
  0
VERTEX
  5
866
  8
LAYER_1
 10
-153.5453278505811
 20
-88.93368621083034
 30
0.0
  0
VERTEX
  5
867
  8
LAYER_1
 10
-153.7412198931289
 20
-89.13647947268231
 30
0.0
  0
VERTEX
  5
868
  8
LAYER_1
 10
-153.9474637646329
 20
-89.3328378138317
 30
0.0
  0
VERTEX
  5
869
  8
LAYER_1
 10
-154.1640594650934
 20
-89.5227612342785
 30
0.0
  0
VERTEX
  5
86A
  8
LAYER_1
 10
-154.3910069945102
 20
-89.70624973402272
 30
0.0
  0
VERTEX
  5
86B
  8
LAYER_1
 10
-154.6283063528833
 20
-89.88330331306432
 30
0.0
  0
VERTEX
  5
86C
  8
LAYER_1
 10
-154.8759575402128
 20
-90.05392197140334
 30
0.0
  0
VERTEX
  5
86D
  8
LAYER_1
 10
-155.1339605564986
 20
-90.21810570903976
 30
0.0
  0
VERTEX
  5
86E
  8
LAYER_1
 10
-155.4023154017407
 20
-90.3758545259736
 30
0.0
  0
VERTEX
  5
86F
  8
LAYER_1
 10
-155.6810220759393
 20
-90.52716842220482
 30
0.0
  0
VERTEX
  5
870
  8
LAYER_1
 10
-155.9700805790941
 20
-90.67204739773348
 30
0.0
  0
VERTEX
  5
871
  8
LAYER_1
 10
-156.2694909112053
 20
-90.81049145255955
 30
0.0
  0
VERTEX
  5
872
  8
LAYER_1
 10
-156.5792530722728
 20
-90.94250058668301
 30
0.0
  0
VERTEX
  5
873
  8
LAYER_1
 10
-156.8993670622967
 20
-91.06807480010387
 30
0.0
  0
VERTEX
  5
874
  8
LAYER_1
 10
-156.5025003224434
 20
-91.20442051122257
 30
0.0
  0
VERTEX
  5
875
  8
LAYER_1
 10
-156.1176640865123
 20
-91.35083827213663
 30
0.0
  0
VERTEX
  5
876
  8
LAYER_1
 10
-155.7448583545034
 20
-91.50732808284603
 30
0.0
  0
VERTEX
  5
877
  8
LAYER_1
 10
-155.3840831264168
 20
-91.6738899433508
 30
0.0
  0
VERTEX
  5
878
  8
LAYER_1
 10
-155.0353384022524
 20
-91.85052385365093
 30
0.0
  0
VERTEX
  5
879
  8
LAYER_1
 10
-154.6986241820102
 20
-92.03722981374644
 30
0.0
  0
VERTEX
  5
87A
  8
LAYER_1
 10
-154.3739404656903
 20
-92.23400782363728
 30
0.0
  0
VERTEX
  5
87B
  8
LAYER_1
 10
-154.0612872532926
 20
-92.44085788332352
 30
0.0
  0
VERTEX
  5
87C
  8
LAYER_1
 10
-153.7606645448172
 20
-92.6577799928051
 30
0.0
  0
VERTEX
  5
87D
  8
LAYER_1
 10
-153.472072340264
 20
-92.88477415208206
 30
0.0
  0
VERTEX
  5
87E
  8
LAYER_1
 10
-153.195510639633
 20
-93.12184036115434
 30
0.0
  0
VERTEX
  5
87F
  8
LAYER_1
 10
-152.9309794429242
 20
-93.368978620022
 30
0.0
  0
VERTEX
  5
880
  8
LAYER_1
 10
-152.6784787501378
 20
-93.62618892868502
 30
0.0
  0
VERTEX
  5
881
  8
LAYER_1
 10
-152.4380085612735
 20
-93.89347128714343
 30
0.0
  0
VERTEX
  5
882
  8
LAYER_1
 10
-152.2095688763315
 20
-94.17082569539717
 30
0.0
  0
VERTEX
  5
883
  8
LAYER_1
 10
-151.9931596953117
 20
-94.4582521534463
 30
0.0
  0
VERTEX
  5
884
  8
LAYER_1
 10
-151.7893405765361
 20
-94.75425850576553
 30
0.0
  0
VERTEX
  5
885
  8
LAYER_1
 10
-151.5986710783267
 20
-95.05735259682965
 30
0.0
  0
VERTEX
  5
886
  8
LAYER_1
 10
-151.4211512006835
 20
-95.36753442663866
 30
0.0
  0
VERTEX
  5
887
  8
LAYER_1
 10
-151.2567809436064
 20
-95.68480399519254
 30
0.0
  0
VERTEX
  5
888
  8
LAYER_1
 10
-151.1055603070955
 20
-96.00916130249132
 30
0.0
  0
VERTEX
  5
889
  8
LAYER_1
 10
-150.9674892911507
 20
-96.34060634853496
 30
0.0
  0
VERTEX
  5
88A
  8
LAYER_1
 10
-150.8425678957721
 20
-96.6791391333235
 30
0.0
  0
VERTEX
  5
88B
  8
LAYER_1
 10
-150.7307961209597
 20
-97.02475965685693
 30
0.0
  0
VERTEX
  5
88C
  8
LAYER_1
 10
-150.6321739667135
 20
-97.37746791913526
 30
0.0
  0
VERTEX
  5
88D
  8
LAYER_1
 10
-150.5467014330334
 20
-97.73726392015844
 30
0.0
  0
VERTEX
  5
88E
  8
LAYER_1
 10
-150.4743785199195
 20
-98.10414765992653
 30
0.0
  0
VERTEX
  5
88F
  8
LAYER_1
 10
-150.4152052273717
 20
-98.47811913843948
 30
0.0
  0
VERTEX
  5
890
  8
LAYER_1
 10
-150.3691815553902
 20
-98.85917835569734
 30
0.0
  0
VERTEX
  5
891
  8
LAYER_1
 10
-150.3363075039747
 20
-99.24732531170005
 30
0.0
  0
VERTEX
  5
892
  8
LAYER_1
 10
-150.3165830731255
 20
-99.64256000644767
 30
0.0
  0
VERTEX
  5
893
  8
LAYER_1
 10
-150.3100082628424
 20
-100.0448824399402
 30
0.0
  0
VERTEX
  5
894
  8
LAYER_1
 10
-150.3224118056459
 20
-100.6003373342103
 30
0.0
  0
VERTEX
  5
895
  8
LAYER_1
 10
-150.3596224340566
 20
-101.1446010620411
 30
0.0
  0
VERTEX
  5
896
  8
LAYER_1
 10
-150.4216401480743
 20
-101.6776736234327
 30
0.0
  0
VERTEX
  5
897
  8
LAYER_1
 10
-150.5084649476991
 20
-102.1995550183849
 30
0.0
  0
VERTEX
  5
898
  8
LAYER_1
 10
-150.620096832931
 20
-102.7102452468979
 30
0.0
  0
VERTEX
  5
899
  8
LAYER_1
 10
-150.7565358037701
 20
-103.2097443089716
 30
0.0
  0
VERTEX
  5
89A
  8
LAYER_1
 10
-150.9177818602162
 20
-103.6980522046059
 30
0.0
  0
VERTEX
  5
89B
  8
LAYER_1
 10
-151.1038350022694
 20
-104.175168933801
 30
0.0
  0
VERTEX
  5
89C
  8
LAYER_1
 10
-151.3146952299297
 20
-104.6410944965568
 30
0.0
  0
VERTEX
  5
89D
  8
LAYER_1
 10
-151.5503625431971
 20
-105.0958288928733
 30
0.0
  0
VERTEX
  5
89E
  8
LAYER_1
 10
-151.8108369420716
 20
-105.5393721227505
 30
0.0
  0
VERTEX
  5
89F
  8
LAYER_1
 10
-152.0961184265532
 20
-105.9717241861885
 30
0.0
  0
VERTEX
  5
8A0
  8
LAYER_1
 10
-152.4062069966418
 20
-106.3928850831871
 30
0.0
  0
VERTEX
  5
8A1
  8
LAYER_1
 10
-152.7411026523376
 20
-106.8028548137464
 30
0.0
  0
VERTEX
  5
8A2
  8
LAYER_1
 10
-153.1008053936404
 20
-107.2016333778665
 30
0.0
  0
VERTEX
  5
8A3
  8
LAYER_1
 10
-153.4853152205504
 20
-107.5892207755473
 30
0.0
  0
VERTEX
  5
8A4
  8
LAYER_1
 10
-153.8900624067714
 20
-107.9592753458065
 30
0.0
  0
VERTEX
  5
8A5
  8
LAYER_1
 10
-154.3104772260075
 20
-108.3054554276619
 30
0.0
  0
VERTEX
  5
8A6
  8
LAYER_1
 10
-154.7465596782585
 20
-108.6277610211134
 30
0.0
  0
VERTEX
  5
8A7
  8
LAYER_1
 10
-155.1983097635245
 20
-108.9261921261612
 30
0.0
  0
VERTEX
  5
8A8
  8
LAYER_1
 10
-155.6657274818056
 20
-109.2007487428051
 30
0.0
  0
VERTEX
  5
8A9
  8
LAYER_1
 10
-156.1488128331016
 20
-109.4514308710452
 30
0.0
  0
VERTEX
  5
8AA
  8
LAYER_1
 10
-156.6475658174127
 20
-109.6782385108815
 30
0.0
  0
VERTEX
  5
8AB
  8
LAYER_1
 10
-157.1619864347387
 20
-109.881171662314
 30
0.0
  0
VERTEX
  5
8AC
  8
LAYER_1
 10
-157.6920746850798
 20
-110.0602303253426
 30
0.0
  0
VERTEX
  5
8AD
  8
LAYER_1
 10
-158.2378305684358
 20
-110.2154144999674
 30
0.0
  0
VERTEX
  5
8AE
  8
LAYER_1
 10
-158.7992540848069
 20
-110.3467241861884
 30
0.0
  0
VERTEX
  5
8AF
  8
LAYER_1
 10
-159.376345234193
 20
-110.4541593840056
 30
0.0
  0
VERTEX
  5
8B0
  8
LAYER_1
 10
-159.9691040165941
 20
-110.537720093419
 30
0.0
  0
VERTEX
  5
8B1
  8
LAYER_1
 10
-160.5775304320102
 20
-110.5974063144286
 30
0.0
  0
VERTEX
  5
8B2
  8
LAYER_1
 10
-161.2016244804413
 20
-110.6332180470343
 30
0.0
  0
VERTEX
  5
8B3
  8
LAYER_1
 10
-161.8413861618874
 20
-110.6451552912362
 30
0.0
  0
VERTEX
  5
8B4
  8
LAYER_1
 10
-162.4811478433335
 20
-110.6331714171741
 30
0.0
  0
VERTEX
  5
8B5
  8
LAYER_1
 10
-163.1052418917646
 20
-110.5972197949879
 30
0.0
  0
VERTEX
  5
8B6
  8
LAYER_1
 10
-163.7136683071807
 20
-110.5373004246776
 30
0.0
  0
VERTEX
  5
8B7
  8
LAYER_1
 10
-164.3064270895818
 20
-110.453413306243
 30
0.0
  0
VERTEX
  5
8B8
  8
LAYER_1
 10
-164.8835182389679
 20
-110.3455584396844
 30
0.0
  0
VERTEX
  5
8B9
  8
LAYER_1
 10
-165.444941755339
 20
-110.2137358250016
 30
0.0
  0
VERTEX
  5
8BA
  8
LAYER_1
 10
-165.9906976386951
 20
-110.0579454621946
 30
0.0
  0
VERTEX
  5
8BB
  8
LAYER_1
 10
-166.5207858890361
 20
-109.8781873512635
 30
0.0
  0
VERTEX
  5
8BC
  8
LAYER_1
 10
-167.0352065063622
 20
-109.6744614922083
 30
0.0
  0
VERTEX
  5
8BD
  8
LAYER_1
 10
-167.5339594906732
 20
-109.4467678850288
 30
0.0
  0
VERTEX
  5
8BE
  8
LAYER_1
 10
-168.0170448419693
 20
-109.1951065297253
 30
0.0
  0
VERTEX
  5
8BF
  8
LAYER_1
 10
-168.4844625602503
 20
-108.9194774262976
 30
0.0
  0
VERTEX
  5
8C0
  8
LAYER_1
 10
-168.9362126455163
 20
-108.6198805747458
 30
0.0
  0
VERTEX
  5
8C1
  8
LAYER_1
 10
-169.3722950977674
 20
-108.2963159750698
 30
0.0
  0
VERTEX
  5
8C2
  8
LAYER_1
 10
-169.7927099170034
 20
-107.9487836272696
 30
0.0
  0
VERTEX
  5
8C3
  8
LAYER_1
 10
-170.1974571032244
 20
-107.5772835313454
 30
0.0
  0
VERTEX
  5
8C4
  8
LAYER_1
 10
-170.5819669301344
 20
-107.1878775691182
 30
0.0
  0
VERTEX
  5
8C5
  8
LAYER_1
 10
-170.9416696714372
 20
-106.7866276224095
 30
0.0
  0
VERTEX
  5
8C6
  8
LAYER_1
 10
-171.276565327133
 20
-106.3735336912192
 30
0.0
  0
VERTEX
  5
8C7
  8
LAYER_1
 10
-171.5866538972217
 20
-105.9485957755473
 30
0.0
  0
VERTEX
  5
8C8
  8
LAYER_1
 10
-171.8719353817033
 20
-105.5118138753938
 30
0.0
  0
VERTEX
  5
8C9
  8
LAYER_1
 10
-172.1324097805777
 20
-105.0631879907587
 30
0.0
  0
VERTEX
  5
8CA
  8
LAYER_1
 10
-172.3680770938452
 20
-104.6027181216421
 30
0.0
  0
VERTEX
  5
8CB
  8
LAYER_1
 10
-172.5789373215054
 20
-104.1304042680439
 30
0.0
  0
VERTEX
  5
8CC
  8
LAYER_1
 10
-172.7649904635587
 20
-103.6462464299641
 30
0.0
  0
VERTEX
  5
8CD
  8
LAYER_1
 10
-172.9262365200047
 20
-103.1502446074027
 30
0.0
  0
VERTEX
  5
8CE
  8
LAYER_1
 10
-173.0626754908438
 20
-102.6423988003597
 30
0.0
  0
VERTEX
  5
8CF
  8
LAYER_1
 10
-173.1743073760757
 20
-102.1227090088351
 30
0.0
  0
VERTEX
  5
8D0
  8
LAYER_1
 10
-173.2611321757005
 20
-101.591175232829
 30
0.0
  0
VERTEX
  5
8D1
  8
LAYER_1
 10
-173.3231498897183
 20
-101.0477974723413
 30
0.0
  0
VERTEX
  5
8D2
  8
LAYER_1
 10
-173.3603605181289
 20
-100.492575727372
 30
0.0
  0
VERTEX
  5
8D3
  8
LAYER_1
 10
-173.3727640609324
 20
-99.92550999792107
 30
0.0
  0
VERTEX
  5
8D4
  8
LAYER_1
 10
-173.3660027312087
 20
-99.50309009469802
 30
0.0
  0
VERTEX
  5
8D5
  8
LAYER_1
 10
-173.3457187420375
 20
-99.08934334546541
 30
0.0
  0
VERTEX
  5
8D6
  8
LAYER_1
 10
-173.3119120934188
 20
-98.68426975022324
 30
0.0
  0
VERTEX
  5
8D7
  8
LAYER_1
 10
-173.2645827853526
 20
-98.28786930897152
 30
0.0
  0
VERTEX
  5
8D8
  8
LAYER_1
 10
-173.203730817839
 20
-97.90014202171027
 30
0.0
  0
VERTEX
  5
8D9
  8
LAYER_1
 10
-173.1293561908779
 20
-97.52108788843947
 30
0.0
  0
VERTEX
  5
8DA
  8
LAYER_1
 10
-173.0414589044693
 20
-97.15070690915911
 30
0.0
  0
VERTEX
  5
8DB
  8
LAYER_1
 10
-172.9400389586132
 20
-96.78899908386921
 30
0.0
  0
VERTEX
  5
8DC
  8
LAYER_1
 10
-172.8250963533097
 20
-96.43596441256977
 30
0.0
  0
VERTEX
  5
8DD
  8
LAYER_1
 10
-172.6966310885587
 20
-96.09160289526076
 30
0.0
  0
VERTEX
  5
8DE
  8
LAYER_1
 10
-172.5546431643602
 20
-95.75591453194221
 30
0.0
  0
VERTEX
  5
8DF
  8
LAYER_1
 10
-172.3991325807142
 20
-95.4288993226141
 30
0.0
  0
VERTEX
  5
8E0
  8
LAYER_1
 10
-172.2300993376207
 20
-95.11055726727645
 30
0.0
  0
VERTEX
  5
8E1
  8
LAYER_1
 10
-172.0475434350798
 20
-94.80088836592925
 30
0.0
  0
VERTEX
  5
8E2
  8
LAYER_1
 10
-171.8514648730914
 20
-94.4998926185725
 30
0.0
  0
VERTEX
  5
8E3
  8
LAYER_1
 10
-171.6418636516555
 20
-94.2075700252062
 30
0.0
  0
VERTEX
  5
8E4
  8
LAYER_1
 10
-171.4197656276958
 20
-93.92531948163526
 30
0.0
  0
VERTEX
  5
8E5
  8
LAYER_1
 10
-171.1861966581357
 20
-93.6545398836646
 30
0.0
  0
VERTEX
  5
8E6
  8
LAYER_1
 10
-170.9411567429754
 20
-93.39523123129419
 30
0.0
  0
VERTEX
  5
8E7
  8
LAYER_1
 10
-170.6846458822149
 20
-93.14739352452406
 30
0.0
  0
VERTEX
  5
8E8
  8
LAYER_1
 10
-170.416664075854
 20
-92.91102676335422
 30
0.0
  0
VERTEX
  5
8E9
  8
LAYER_1
 10
-170.1372113238929
 20
-92.68613094778465
 30
0.0
  0
VERTEX
  5
8EA
  8
LAYER_1
 10
-169.8462876263315
 20
-92.47270607781533
 30
0.0
  0
VERTEX
  5
8EB
  8
LAYER_1
 10
-169.5438929831698
 20
-92.2707521534463
 30
0.0
  0
VERTEX
  5
8EC
  8
LAYER_1
 10
-169.2300273944079
 20
-92.08026917467754
 30
0.0
  0
VERTEX
  5
8ED
  8
LAYER_1
 10
-168.9046908600457
 20
-91.90125714150906
 30
0.0
  0
VERTEX
  5
8EE
  8
LAYER_1
 10
-168.5678833800832
 20
-91.73371605394084
 30
0.0
  0
VERTEX
  5
8EF
  8
LAYER_1
 10
-168.2196049545204
 20
-91.5776459119729
 30
0.0
  0
VERTEX
  5
8F0
  8
LAYER_1
 10
-167.8598555833574
 20
-91.43304671560523
 30
0.0
  0
VERTEX
  5
8F1
  8
LAYER_1
 10
-167.4886352665941
 20
-91.29991846483784
 30
0.0
  0
VERTEX
  5
8F2
  8
LAYER_1
 10
-167.1059440042305
 20
-91.17826115967071
 30
0.0
  0
SEQEND
  5
EA2
  8
LAYER_1
  0
POLYLINE
  5
7D
  8
LAYER_1
 66
     1
 10
0.0
 20
0.0
 30
0.0
 70
     1
  0
VERTEX
  5
8F3
  8
LAYER_1
 10
-167.5712633788042
 20
-83.7863558369388
 30
0.0
  0
VERTEX
  5
8F4
  8
LAYER_1
 10
-167.5650149775423
 20
-84.09318031681602
 30
0.0
  0
VERTEX
  5
8F5
  8
LAYER_1
 10
-167.5462697737564
 20
-84.39291705794835
 30
0.0
  0
VERTEX
  5
8F6
  8
LAYER_1
 10
-167.5150277674468
 20
-84.68556606033579
 30
0.0
  0
VERTEX
  5
8F7
  8
LAYER_1
 10
-167.4712889586132
 20
-84.97112732397837
 30
0.0
  0
VERTEX
  5
8F8
  8
LAYER_1
 10
-167.4150533472558
 20
-85.24960084887604
 30
0.0
  0
VERTEX
  5
8F9
  8
LAYER_1
 10
-167.3463209333744
 20
-85.52098663502885
 30
0.0
  0
VERTEX
  5
8FA
  8
LAYER_1
 10
-167.2650917169693
 20
-85.78528468243675
 30
0.0
  0
VERTEX
  5
8FB
  8
LAYER_1
 10
-167.1713656980402
 20
-86.04249499109979
 30
0.0
  0
VERTEX
  5
8FC
  8
LAYER_1
 10
-167.0651428765873
 20
-86.29261756101792
 30
0.0
  0
VERTEX
  5
8FD
  8
LAYER_1
 10
-166.9464232526105
 20
-86.53565239219118
 30
0.0
  0
VERTEX
  5
8FE
  8
LAYER_1
 10
-166.8152068261098
 20
-86.77159948461954
 30
0.0
  0
VERTEX
  5
8FF
  8
LAYER_1
 10
-166.6714935970853
 20
-87.00045883830305
 30
0.0
  0
VERTEX
  5
900
  8
LAYER_1
 10
-166.5152835655368
 20
-87.22223045324165
 30
0.0
  0
VERTEX
  5
901
  8
LAYER_1
 10
-166.3465767314645
 20
-87.43691432943538
 30
0.0
  0
VERTEX
  5
902
  8
LAYER_1
 10
-166.1653730948683
 20
-87.64451046688423
 30
0.0
  0
VERTEX
  5
903
  8
LAYER_1
 10
-165.9716726557483
 20
-87.84501886558819
 30
0.0
  0
VERTEX
  5
904
  8
LAYER_1
 10
-165.7679934265532
 20
-88.03582825337807
 30
0.0
  0
VERTEX
  5
905
  8
LAYER_1
 10
-165.5568534197319
 20
-88.21432735808477
 30
0.0
  0
VERTEX
  5
906
  8
LAYER_1
 10
-165.3382526352844
 20
-88.38051617970822
 30
0.0
  0
VERTEX
  5
907
  8
LAYER_1
 10
-165.1121910732107
 20
-88.53439471824848
 30
0.0
  0
VERTEX
  5
908
  8
LAYER_1
 10
-164.8786687335109
 20
-88.67596297370551
 30
0.0
  0
VERTEX
  5
909
  8
LAYER_1
 10
-164.6376856161849
 20
-88.80522094607933
 30
0.0
  0
VERTEX
  5
90A
  8
LAYER_1
 10
-164.3892417212326
 20
-88.92216863536991
 30
0.0
  0
VERTEX
  5
90B
  8
LAYER_1
 10
-164.1333370486541
 20
-89.02680604157727
 30
0.0
  0
VERTEX
  5
90C
  8
LAYER_1
 10
-163.8699715984495
 20
-89.11913316470141
 30
0.0
  0
VERTEX
  5
90D
  8
LAYER_1
 10
-163.5991453706187
 20
-89.19915000474235
 30
0.0
  0
VERTEX
  5
90E
  8
LAYER_1
 10
-163.3208583651617
 20
-89.26685656170005
 30
0.0
  0
VERTEX
  5
90F
  8
LAYER_1
 10
-163.0351105820784
 20
-89.32225283557455
 30
0.0
  0
VERTEX
  5
910
  8
LAYER_1
 10
-162.741902021369
 20
-89.36533882636581
 30
0.0
  0
VERTEX
  5
911
  8
LAYER_1
 10
-162.4412326830334
 20
-89.39611453407387
 30
0.0
  0
VERTEX
  5
912
  8
LAYER_1
 10
-162.1331025670716
 20
-89.4145799586987
 30
0.0
  0
VERTEX
  5
913
  8
LAYER_1
 10
-161.8175116734836
 20
-89.42073510024031
 30
0.0
  0
VERTEX
  5
914
  8
LAYER_1
 10
-161.5106405637462
 20
-89.41462658855887
 30
0.0
  0
VERTEX
  5
915
  8
LAYER_1
 10
-161.2107639330334
 20
-89.39630105351453
 30
0.0
  0
VERTEX
  5
916
  8
LAYER_1
 10
-160.9178817813451
 20
-89.3657584951073
 30
0.0
  0
VERTEX
  5
917
  8
LAYER_1
 10
-160.6319941086814
 20
-89.32299891333717
 30
0.0
  0
VERTEX
  5
918
  8
LAYER_1
 10
-160.3531009150422
 20
-89.26802230820417
 30
0.0
  0
VERTEX
  5
919
  8
LAYER_1
 10
-160.0812022004276
 20
-89.20082867970825
 30
0.0
  0
VERTEX
  5
91A
  8
LAYER_1
 10
-159.8162979648376
 20
-89.12141802784944
 30
0.0
  0
VERTEX
  5
91B
  8
LAYER_1
 10
-159.5583882082721
 20
-89.02979035262774
 30
0.0
  0
VERTEX
  5
91C
  8
LAYER_1
 10
-159.3074729307312
 20
-88.92594565404318
 30
0.0
  0
VERTEX
  5
91D
  8
LAYER_1
 10
-159.0635521322148
 20
-88.80988393209569
 30
0.0
  0
VERTEX
  5
91E
  8
LAYER_1
 10
-158.826625812723
 20
-88.68160518678533
 30
0.0
  0
VERTEX
  5
91F
  8
LAYER_1
 10
-158.5966939722558
 20
-88.54110941811206
 30
0.0
  0
VERTEX
  5
920
  8
LAYER_1
 10
-158.373756610813
 20
-88.38839662607592
 30
0.0
  0
VERTEX
  5
921
  8
LAYER_1
 10
-158.1578137283949
 20
-88.22346681067688
 30
0.0
  0
VERTEX
  5
922
  8
LAYER_1
 10
-157.9488653250013
 20
-88.04631997191495
 30
0.0
  0
VERTEX
  5
923
  8
LAYER_1
 10
-157.7469114006323
 20
-87.8569561097901
 30
0.0
  0
VERTEX
  5
924
  8
LAYER_1
 10
-157.5546564871773
 20
-87.65873257423416
 30
0.0
  0
VERTEX
  5
925
  8
LAYER_1
 10
-157.3748051165259
 20
-87.45500671517891
 30
0.0
  0
VERTEX
  5
926
  8
LAYER_1
 10
-157.207357288678
 20
-87.24577853262434
 30
0.0
  0
VERTEX
  5
927
  8
LAYER_1
 10
-157.0523130036337
 20
-87.03104802657046
 30
0.0
  0
VERTEX
  5
928
  8
LAYER_1
 10
-156.9096722613929
 20
-86.81081519701725
 30
0.0
  0
VERTEX
  5
929
  8
LAYER_1
 10
-156.7794350619556
 20
-86.58508004396472
 30
0.0
  0
VERTEX
  5
92A
  8
LAYER_1
 10
-156.6616014053219
 20
-86.35384256741288
 30
0.0
  0
VERTEX
  5
92B
  8
LAYER_1
 10
-156.5561712914918
 20
-86.11710276736173
 30
0.0
  0
VERTEX
  5
92C
  8
LAYER_1
 10
-156.4631447204652
 20
-85.87486064381125
 30
0.0
  0
VERTEX
  5
92D
  8
LAYER_1
 10
-156.3825216922421
 20
-85.62711619676145
 30
0.0
  0
VERTEX
  5
92E
  8
LAYER_1
 10
-156.3143022068226
 20
-85.37386942621234
 30
0.0
  0
VERTEX
  5
92F
  8
LAYER_1
 10
-156.2584862642067
 20
-85.11512033216391
 30
0.0
  0
VERTEX
  5
930
  8
LAYER_1
 10
-156.2150738643942
 20
-84.85086891461616
 30
0.0
  0
VERTEX
  5
931
  8
LAYER_1
 10
-156.1840650073854
 20
-84.58111517356909
 30
0.0
  0
VERTEX
  5
932
  8
LAYER_1
 10
-156.1654596931801
 20
-84.3058591090227
 30
0.0
  0
VERTEX
  5
933
  8
LAYER_1
 10
-156.1592579217783
 20
-84.025100720977
 30
0.0
  0
VERTEX
  5
934
  8
LAYER_1
 10
-156.1656462126207
 20
-83.73259160817004
 30
0.0
  0
VERTEX
  5
935
  8
LAYER_1
 10
-156.184811085148
 20
-83.44595785774371
 30
0.0
  0
VERTEX
  5
936
  8
LAYER_1
 10
-156.2167525393601
 20
-83.165199469698
 30
0.0
  0
VERTEX
  5
937
  8
LAYER_1
 10
-156.2614705752571
 20
-82.89031644403292
 30
0.0
  0
VERTEX
  5
938
  8
LAYER_1
 10
-156.318965192839
 20
-82.62130878074848
 30
0.0
  0
VERTEX
  5
939
  8
LAYER_1
 10
-156.3892363921057
 20
-82.35817647984467
 30
0.0
  0
VERTEX
  5
93A
  8
LAYER_1
 10
-156.4722841730573
 20
-82.10091954132147
 30
0.0
  0
VERTEX
  5
93B
  8
LAYER_1
 10
-156.5681085356937
 20
-81.8495379651789
 30
0.0
  0
VERTEX
  5
93C
  8
LAYER_1
 10
-156.676709480015
 20
-81.60403175141695
 30
0.0
  0
VERTEX
  5
93D
  8
LAYER_1
 10
-156.7980870060211
 20
-81.36440090003565
 30
0.0
  0
VERTEX
  5
93E
  8
LAYER_1
 10
-156.9322411137121
 20
-81.13064541103496
 30
0.0
  0
VERTEX
  5
93F
  8
LAYER_1
 10
-157.079171803088
 20
-80.90276528441491
 30
0.0
  0
VERTEX
  5
940
  8
LAYER_1
 10
-157.2388790741487
 20
-80.6807605201755
 30
0.0
  0
VERTEX
  5
941
  8
LAYER_1
 10
-157.4113629268942
 20
-80.4646311183167
 30
0.0
  0
VERTEX
  5
942
  8
LAYER_1
 10
-157.5966233613247
 20
-80.25437707883853
 30
0.0
  0
VERTEX
  5
943
  8
LAYER_1
 10
-157.79466037744
 20
-80.04999840174098
 30
0.0
  0
VERTEX
  5
944
  8
LAYER_1
 10
-158.0022098850287
 20
-79.85485243695584
 30
0.0
  0
VERTEX
  5
945
  8
LAYER_1
 10
-158.2160077938793
 20
-79.67229653441491
 30
0.0
  0
VERTEX
  5
946
  8
LAYER_1
 10
-158.4360541039918
 20
-79.50233069411817
 30
0.0
  0
VERTEX
  5
947
  8
LAYER_1
 10
-158.6623488153663
 20
-79.34495491606566
 30
0.0
  0
VERTEX
  5
948
  8
LAYER_1
 10
-158.8948919280027
 20
-79.20016920025733
 30
0.0
  0
VERTEX
  5
949
  8
LAYER_1
 10
-159.133683441901
 20
-79.06797354669322
 30
0.0
  0
VERTEX
  5
94A
  8
LAYER_1
 10
-159.3787233570613
 20
-78.9483679553733
 30
0.0
  0
VERTEX
  5
94B
  8
LAYER_1
 10
-159.6300116734836
 20
-78.84135242629759
 30
0.0
  0
VERTEX
  5
94C
  8
LAYER_1
 10
-159.8875483911678
 20
-78.74692695946607
 30
0.0
  0
VERTEX
  5
94D
  8
LAYER_1
 10
-160.1513335101139
 20
-78.66509155487876
 30
0.0
  0
VERTEX
  5
94E
  8
LAYER_1
 10
-160.421367030322
 20
-78.59584621253565
 30
0.0
  0
VERTEX
  5
94F
  8
LAYER_1
 10
-160.6976489517919
 20
-78.53919093243675
 30
0.0
  0
VERTEX
  5
950
  8
LAYER_1
 10
-160.9801792745238
 20
-78.49512571458204
 30
0.0
  0
VERTEX
  5
951
  8
LAYER_1
 10
-161.2689579985177
 20
-78.46365055897155
 30
0.0
  0
VERTEX
  5
952
  8
LAYER_1
 10
-161.5639851237735
 20
-78.44476546560524
 30
0.0
  0
VERTEX
  5
953
  8
LAYER_1
 10
-161.8652606502912
 20
-78.43847043448314
 30
0.0
  0
VERTEX
  5
954
  8
LAYER_1
 10
-162.169380598279
 20
-78.44462557602475
 30
0.0
  0
VERTEX
  5
955
  8
LAYER_1
 10
-162.4669723658437
 20
-78.46309100064957
 30
0.0
  0
VERTEX
  5
956
  8
LAYER_1
 10
-162.7580359529856
 20
-78.49386670835761
 30
0.0
  0
VERTEX
  5
957
  8
LAYER_1
 10
-163.0425713597046
 20
-78.53695269914888
 30
0.0
  0
VERTEX
  5
958
  8
LAYER_1
 10
-163.3205785860006
 20
-78.59234897302338
 30
0.0
  0
VERTEX
  5
959
  8
LAYER_1
 10
-163.5920576318738
 20
-78.66005552998108
 30
0.0
  0
VERTEX
  5
95A
  8
LAYER_1
 10
-163.857008497324
 20
-78.74007237002202
 30
0.0
  0
VERTEX
  5
95B
  8
LAYER_1
 10
-164.1154311823512
 20
-78.83239949314617
 30
0.0
  0
VERTEX
  5
95C
  8
LAYER_1
 10
-164.3673256869556
 20
-78.93703689935354
 30
0.0
  0
VERTEX
  5
95D
  8
LAYER_1
 10
-164.612692011137
 20
-79.05398458864411
 30
0.0
  0
VERTEX
  5
95E
  8
LAYER_1
 10
-164.8515301548956
 20
-79.18324256101792
 30
0.0
  0
VERTEX
  5
95F
  8
LAYER_1
 10
-165.0838401182312
 20
-79.32481081647495
 30
0.0
  0
VERTEX
  5
960
  8
LAYER_1
 10
-165.3096219011439
 20
-79.4786893550152
 30
0.0
  0
VERTEX
  5
961
  8
LAYER_1
 10
-165.5288755036336
 20
-79.64487817663866
 30
0.0
  0
VERTEX
  5
962
  8
LAYER_1
 10
-165.7416009257005
 20
-79.82337728134536
 30
0.0
  0
VERTEX
  5
963
  8
LAYER_1
 10
-165.9477981673444
 20
-80.01418666913526
 30
0.0
  0
VERTEX
  5
964
  8
LAYER_1
 10
-166.1443896577946
 20
-80.21357595119528
 30
0.0
  0
VERTEX
  5
965
  8
LAYER_1
 10
-166.3282978262803
 20
-80.41781473871234
 30
0.0
  0
VERTEX
  5
966
  8
LAYER_1
 10
-166.4995226728014
 20
-80.6269030316864
 30
0.0
  0
VERTEX
  5
967
  8
LAYER_1
 10
-166.6580641973581
 20
-80.84084083011751
 30
0.0
  0
VERTEX
  5
968
  8
LAYER_1
 10
-166.8039223999501
 20
-81.05962813400564
 30
0.0
  0
VERTEX
  5
969
  8
LAYER_1
 10
-166.9370972805777
 20
-81.2832649433508
 30
0.0
  0
VERTEX
  5
96A
  8
LAYER_1
 10
-167.0575888392407
 20
-81.51175125815297
 30
0.0
  0
VERTEX
  5
96B
  8
LAYER_1
 10
-167.1653970759392
 20
-81.7450870784122
 30
0.0
  0
VERTEX
  5
96C
  8
LAYER_1
 10
-167.2605219906732
 20
-81.98327240412843
 30
0.0
  0
VERTEX
  5
96D
  8
LAYER_1
 10
-167.3429635834426
 20
-82.22630723530169
 30
0.0
  0
VERTEX
  5
96E
  8
LAYER_1
 10
-167.4127218542475
 20
-82.47419157193195
 30
0.0
  0
VERTEX
  5
96F
  8
LAYER_1
 10
-167.4697968030879
 20
-82.72692541401928
 30
0.0
  0
VERTEX
  5
970
  8
LAYER_1
 10
-167.5141884299638
 20
-82.98450876156362
 30
0.0
  0
VERTEX
  5
971
  8
LAYER_1
 10
-167.5458967348751
 20
-83.24694161456499
 30
0.0
  0
VERTEX
  5
972
  8
LAYER_1
 10
-167.5649217178219
 20
-83.51422397302338
 30
0.0
  0
SEQEND
  5
EA3
  8
LAYER_1
  0
POLYLINE
  5
7E
  8
LAYER_1
 66
     1
 10
0.0
 20
0.0
 30
0.0
 70
     1
  0
VERTEX
  5
973
  8
LAYER_1
 10
-168.9559837062258
 20
-99.94938448632489
 30
0.0
  0
VERTEX
  5
974
  8
LAYER_1
 10
-168.942367787058
 20
-100.4071031936919
 30
0.0
  0
VERTEX
  5
975
  8
LAYER_1
 10
-168.9015200295546
 20
-100.8610915122458
 30
0.0
  0
VERTEX
  5
976
  8
LAYER_1
 10
-168.8334404337155
 20
-101.3113494419866
 30
0.0
  0
VERTEX
  5
977
  8
LAYER_1
 10
-168.7381289995409
 20
-101.7578769829142
 30
0.0
  0
VERTEX
  5
978
  8
LAYER_1
 10
-168.6155857270307
 20
-102.2006741350288
 30
0.0
  0
VERTEX
  5
979
  8
LAYER_1
 10
-168.4658106161849
 20
-102.6397408983303
 30
0.0
  0
VERTEX
  5
97A
  8
LAYER_1
 10
-168.2888036670034
 20
-103.0750772728187
 30
0.0
  0
VERTEX
  5
97B
  8
LAYER_1
 10
-168.0845648794863
 20
-103.506683258494
 30
0.0
  0
VERTEX
  5
97C
  8
LAYER_1
 10
-167.9723268060723
 20
-103.7185227132178
 30
0.0
  0
VERTEX
  5
97D
  8
LAYER_1
 10
-167.853467292515
 20
-103.9243002861202
 30
0.0
  0
VERTEX
  5
97E
  8
LAYER_1
 10
-167.7279863388144
 20
-104.1240159772014
 30
0.0
  0
VERTEX
  5
97F
  8
LAYER_1
 10
-167.5958839449706
 20
-104.3176697864613
 30
0.0
  0
VERTEX
  5
980
  8
LAYER_1
 10
-167.4571601109836
 20
-104.5052617138999
 30
0.0
  0
VERTEX
  5
981
  8
LAYER_1
 10
-167.3118148368533
 20
-104.6867917595172
 30
0.0
  0
VERTEX
  5
982
  8
LAYER_1
 10
-167.1598481225798
 20
-104.8622599233133
 30
0.0
  0
VERTEX
  5
983
  8
LAYER_1
 10
-167.001259968163
 20
-105.031666205288
 30
0.0
  0
VERTEX
  5
984
  8
LAYER_1
 10
-166.8360503736029
 20
-105.1950106054415
 30
0.0
  0
VERTEX
  5
985
  8
LAYER_1
 10
-166.6642193388997
 20
-105.3522931237737
 30
0.0
  0
VERTEX
  5
986
  8
LAYER_1
 10
-166.4857668640532
 20
-105.5035137602846
 30
0.0
  0
VERTEX
  5
987
  8
LAYER_1
 10
-166.3006929490634
 20
-105.6486725149743
 30
0.0
  0
VERTEX
  5
988
  8
LAYER_1
 10
-166.1089975939304
 20
-105.7877693878426
 30
0.0
  0
VERTEX
  5
989
  8
LAYER_1
 10
-165.9106807986541
 20
-105.9208043788897
 30
0.0
  0
VERTEX
  5
98A
  8
LAYER_1
 10
-165.7057425632346
 20
-106.0477774881155
 30
0.0
  0
VERTEX
  5
98B
  8
LAYER_1
 10
-165.4941828876719
 20
-106.16868871552
 30
0.0
  0
VERTEX
  5
98C
  8
LAYER_1
 10
-165.0603386687087
 20
-106.389714252696
 30
0.0
  0
VERTEX
  5
98D
  8
LAYER_1
 10
-164.8403389884563
 20
-106.4891757444252
 30
0.0
  0
VERTEX
  5
98E
  8
LAYER_1
 10
-164.6182875943567
 20
-106.5812697182485
 30
0.0
  0
VERTEX
  5
98F
  8
LAYER_1
 10
-164.3941844864099
 20
-106.6659961741659
 30
0.0
  0
VERTEX
  5
990
  8
LAYER_1
 10
-164.1680296646159
 20
-106.7433551121775
 30
0.0
  0
VERTEX
  5
991
  8
LAYER_1
 10
-163.9398231289748
 20
-106.8133465322833
 30
0.0
  0
VERTEX
  5
992
  8
LAYER_1
 10
-163.7095648794863
 20
-106.8759704344832
 30
0.0
  0
VERTEX
  5
993
  8
LAYER_1
 10
-163.4772549161507
 20
-106.9312268187771
 30
0.0
  0
VERTEX
  5
994
  8
LAYER_1
 10
-163.2428932389679
 20
-106.9791156851653
 30
0.0
  0
VERTEX
  5
995
  8
LAYER_1
 10
-163.0064798479379
 20
-107.0196370336475
 30
0.0
  0
VERTEX
  5
996
  8
LAYER_1
 10
-162.7680147430607
 20
-107.0527908642239
 30
0.0
  0
VERTEX
  5
997
  8
LAYER_1
 10
-162.5274979243363
 20
-107.0785771768945
 30
0.0
  0
VERTEX
  5
998
  8
LAYER_1
 10
-162.2849293917646
 20
-107.0969959716591
 30
0.0
  0
VERTEX
  5
999
  8
LAYER_1
 10
-161.7936371850798
 20
-107.1117310074709
 30
0.0
  0
VERTEX
  5
99A
  8
LAYER_1
 10
-161.4128577469829
 20
-107.1039904506837
 30
0.0
  0
VERTEX
  5
99B
  8
LAYER_1
 10
-161.0404716837155
 20
-107.0807687803222
 30
0.0
  0
VERTEX
  5
99C
  8
LAYER_1
 10
-160.6764789952776
 20
-107.0420659963863
 30
0.0
  0
VERTEX
  5
99D
  8
LAYER_1
 10
-160.3208796816691
 20
-106.987882098876
 30
0.0
  0
VERTEX
  5
99E
  8
LAYER_1
 10
-159.9736737428901
 20
-106.9182170877915
 30
0.0
  0
VERTEX
  5
99F
  8
LAYER_1
 10
-159.6348611789406
 20
-106.8330709631325
 30
0.0
  0
VERTEX
  5
9A0
  8
LAYER_1
 10
-159.3044419898206
 20
-106.7324437248992
 30
0.0
  0
VERTEX
  5
9A1
  8
LAYER_1
 10
-158.98241617553
 20
-106.6163353730916
 30
0.0
  0
VERTEX
  5
9A2
  8
LAYER_1
 10
-158.6687837360689
 20
-106.4847459077096
 30
0.0
  0
VERTEX
  5
9A3
  8
LAYER_1
 10
-158.3635446714372
 20
-106.3376753287532
 30
0.0
  0
VERTEX
  5
9A4
  8
LAYER_1
 10
-158.0666989816351
 20
-106.1751236362226
 30
0.0
  0
VERTEX
  5
9A5
  8
LAYER_1
 10
-157.7782466666623
 20
-105.9970908301175
 30
0.0
  0
VERTEX
  5
9A6
  8
LAYER_1
 10
-157.4981877265191
 20
-105.8035769104381
 30
0.0
  0
VERTEX
  5
9A7
  8
LAYER_1
 10
-157.2265221612053
 20
-105.5945818771844
 30
0.0
  0
VERTEX
  5
9A8
  8
LAYER_1
 10
-156.963249970721
 20
-105.3701057303563
 30
0.0
  0
VERTEX
  5
9A9
  8
LAYER_1
 10
-156.7083711550661
 20
-105.1301484699538
 30
0.0
  0
VERTEX
  5
9AA
  8
LAYER_1
 10
-156.4655228433335
 20
-104.8782539653494
 30
0.0
  0
VERTEX
  5
9AB
  8
LAYER_1
 10
-156.2383421646159
 20
-104.6179660859156
 30
0.0
  0
VERTEX
  5
9AC
  8
LAYER_1
 10
-156.0268291189134
 20
-104.3492848316523
 30
0.0
  0
VERTEX
  5
9AD
  8
LAYER_1
 10
-155.8309837062258
 20
-104.0722102025595
 30
0.0
  0
VERTEX
  5
9AE
  8
LAYER_1
 10
-155.6508059265532
 20
-103.7867421986373
 30
0.0
  0
VERTEX
  5
9AF
  8
LAYER_1
 10
-155.4862957798956
 20
-103.4928808198856
 30
0.0
  0
VERTEX
  5
9B0
  8
LAYER_1
 10
-155.337453266253
 20
-103.1906260663044
 30
0.0
  0
VERTEX
  5
9B1
  8
LAYER_1
 10
-155.2042783856255
 20
-102.8799779378938
 30
0.0
  0
VERTEX
  5
9B2
  8
LAYER_1
 10
-155.0867711380129
 20
-102.5609364346537
 30
0.0
  0
VERTEX
  5
9B3
  8
LAYER_1
 10
-154.9849315234154
 20
-102.2335015565841
 30
0.0
  0
VERTEX
  5
9B4
  8
LAYER_1
 10
-154.8987595418328
 20
-101.8976733036851
 30
0.0
  0
VERTEX
  5
9B5
  8
LAYER_1
 10
-154.8282551932653
 20
-101.5534516759566
 30
0.0
  0
VERTEX
  5
9B6
  8
LAYER_1
 10
-154.7734184777128
 20
-101.2008366733986
 30
0.0
  0
VERTEX
  5
9B7
  8
LAYER_1
 10
-154.7342493951753
 20
-100.8398282960111
 30
0.0
  0
VERTEX
  5
9B8
  8
LAYER_1
 10
-154.7107479456528
 20
-100.4704265437942
 30
0.0
  0
VERTEX
  5
9B9
  8
LAYER_1
 10
-154.7029141291453
 20
-100.0926314167478
 30
0.0
  0
VERTEX
  5
9BA
  8
LAYER_1
 10
-154.7109810949536
 20
-99.70886766760047
 30
0.0
  0
VERTEX
  5
9BB
  8
LAYER_1
 10
-154.7351819923785
 20
-99.33349729328259
 30
0.0
  0
VERTEX
  5
9BC
  8
LAYER_1
 10
-154.7755168214201
 20
-98.96652029379418
 30
0.0
  0
VERTEX
  5
9BD
  8
LAYER_1
 10
-154.8319855820784
 20
-98.60793666913524
 30
0.0
  0
VERTEX
  5
9BE
  8
LAYER_1
 10
-154.9045882743533
 20
-98.25774641930578
 30
0.0
  0
VERTEX
  5
9BF
  8
LAYER_1
 10
-154.9933248982448
 20
-97.91594954430578
 30
0.0
  0
VERTEX
  5
9C0
  8
LAYER_1
 10
-155.098195453753
 20
-97.58254604413526
 30
0.0
  0
VERTEX
  5
9C1
  8
LAYER_1
 10
-155.2191999408778
 20
-97.25753591879419
 30
0.0
  0
VERTEX
  5
9C2
  8
LAYER_1
 10
-155.3563383596193
 20
-96.94091916828259
 30
0.0
  0
VERTEX
  5
9C3
  8
LAYER_1
 10
-155.5096107099774
 20
-96.63269579260047
 30
0.0
  0
VERTEX
  5
9C4
  8
LAYER_1
 10
-155.6790169919522
 20
-96.33286579174782
 30
0.0
  0
VERTEX
  5
9C5
  8
LAYER_1
 10
-155.8645572055436
 20
-96.04142916572462
 30
0.0
  0
VERTEX
  5
9C6
  8
LAYER_1
 10
-156.0662313507517
 20
-95.75838591453089
 30
0.0
  0
VERTEX
  5
9C7
  8
LAYER_1
 10
-156.2840394275763
 20
-95.48373603816664
 30
0.0
  0
VERTEX
  5
9C8
  8
LAYER_1
 10
-156.5179814360177
 20
-95.21747953663186
 30
0.0
  0
VERTEX
  5
9C9
  8
LAYER_1
 10
-156.7680573760757
 20
-94.95961640992653
 30
0.0
  0
VERTEX
  5
9CA
  8
LAYER_1
 10
-157.0302570797762
 20
-94.71387704686376
 30
0.0
  0
VERTEX
  5
9CB
  8
LAYER_1
 10
-157.3005703791453
 20
-94.48399183625668
 30
0.0
  0
VERTEX
  5
9CC
  8
LAYER_1
 10
-157.5789972741828
 20
-94.26996077810523
 30
0.0
  0
VERTEX
  5
9CD
  8
LAYER_1
 10
-157.8655377648888
 20
-94.07178387240947
 30
0.0
  0
VERTEX
  5
9CE
  8
LAYER_1
 10
-158.1601918512633
 20
-93.88946111916937
 30
0.0
  0
VERTEX
  5
9CF
  8
LAYER_1
 10
-158.4629595333062
 20
-93.72299251838493
 30
0.0
  0
VERTEX
  5
9D0
  8
LAYER_1
 10
-158.7738408110177
 20
-93.57237807005612
 30
0.0
  0
VERTEX
  5
9D1
  8
LAYER_1
 10
-159.0928356843976
 20
-93.437617774183
 30
0.0
  0
VERTEX
  5
9D2
  8
LAYER_1
 10
-159.4199441534461
 20
-93.31871163076553
 30
0.0
  0
VERTEX
  5
9D3
  8
LAYER_1
 10
-159.755166218163
 20
-93.21565963980376
 30
0.0
  0
VERTEX
  5
9D4
  8
LAYER_1
 10
-160.0985018785484
 20
-93.12846180129762
 30
0.0
  0
VERTEX
  5
9D5
  8
LAYER_1
 10
-160.4499511346023
 20
-93.05711811524714
 30
0.0
  0
VERTEX
  5
9D6
  8
LAYER_1
 10
-160.8095139863246
 20
-93.00162858165231
 30
0.0
  0
VERTEX
  5
9D7
  8
LAYER_1
 10
-161.1771904337155
 20
-92.96199320051316
 30
0.0
  0
VERTEX
  5
9D8
  8
LAYER_1
 10
-161.5529804767749
 20
-92.93821197182966
 30
0.0
  0
VERTEX
  5
9D9
  8
LAYER_1
 10
-161.9368841155027
 20
-92.93028489560183
 30
0.0
  0
VERTEX
  5
9DA
  8
LAYER_1
 10
-162.3118348210791
 20
-92.93811871210933
 30
0.0
  0
VERTEX
  5
9DB
  8
LAYER_1
 10
-162.678671930987
 20
-92.96162016163186
 30
0.0
  0
VERTEX
  5
9DC
  8
LAYER_1
 10
-163.0373954452265
 20
-93.00078924416937
 30
0.0
  0
VERTEX
  5
9DD
  8
LAYER_1
 10
-163.3880053637974
 20
-93.05562595972188
 30
0.0
  0
VERTEX
  5
9DE
  8
LAYER_1
 10
-163.7305016866998
 20
-93.12613030828942
 30
0.0
  0
VERTEX
  5
9DF
  8
LAYER_1
 10
-164.0648844139338
 20
-93.21230228987196
 30
0.0
  0
VERTEX
  5
9E0
  8
LAYER_1
 10
-164.3911535454993
 20
-93.3141419044695
 30
0.0
  0
VERTEX
  5
9E1
  8
LAYER_1
 10
-164.7093090813963
 20
-93.43164915208204
 30
0.0
  0
VERTEX
  5
9E2
  8
LAYER_1
 10
-165.0193510216248
 20
-93.5648240327096
 30
0.0
  0
VERTEX
  5
9E3
  8
LAYER_1
 10
-165.3212793661848
 20
-93.71366654635217
 30
0.0
  0
VERTEX
  5
9E4
  8
LAYER_1
 10
-165.6150941150763
 20
-93.87817669300973
 30
0.0
  0
VERTEX
  5
9E5
  8
LAYER_1
 10
-165.9007952682994
 20
-94.05835447268231
 30
0.0
  0
VERTEX
  5
9E6
  8
LAYER_1
 10
-166.178382825854
 20
-94.25419988536989
 30
0.0
  0
VERTEX
  5
9E7
  8
LAYER_1
 10
-166.4478567877401
 20
-94.46571293107249
 30
0.0
  0
VERTEX
  5
9E8
  8
LAYER_1
 10
-166.7092171539577
 20
-94.69289360979009
 30
0.0
  0
VERTEX
  5
9E9
  8
LAYER_1
 10
-166.9624639245068
 20
-94.9357419215227
 30
0.0
  0
VERTEX
  5
9EA
  8
LAYER_1
 10
-167.2038667105743
 20
-95.19034095801656
 30
0.0
  0
VERTEX
  5
9EB
  8
LAYER_1
 10
-167.4296951233472
 20
-95.45277381101792
 30
0.0
  0
VERTEX
  5
9EC
  8
LAYER_1
 10
-167.6399491628253
 20
-95.72304048052679
 30
0.0
  0
VERTEX
  5
9ED
  8
LAYER_1
 10
-167.8346288290088
 20
-96.00114096654316
 30
0.0
  0
VERTEX
  5
9EE
  8
LAYER_1
 10
-168.0137341218976
 20
-96.28707526906703
 30
0.0
  0
VERTEX
  5
9EF
  8
LAYER_1
 10
-168.1772650414918
 20
-96.58084338809842
 30
0.0
  0
VERTEX
  5
9F0
  8
LAYER_1
 10
-168.3252215877912
 20
-96.8824453236373
 30
0.0
  0
VERTEX
  5
9F1
  8
LAYER_1
 10
-168.457603760796
 20
-97.19188107568368
 30
0.0
  0
VERTEX
  5
9F2
  8
LAYER_1
 10
-168.5744115605061
 20
-97.50915064423758
 30
0.0
  0
VERTEX
  5
9F3
  8
LAYER_1
 10
-168.6756449869215
 20
-97.83425402929896
 30
0.0
  0
VERTEX
  5
9F4
  8
LAYER_1
 10
-168.7613040400422
 20
-98.16719123086787
 30
0.0
  0
VERTEX
  5
9F5
  8
LAYER_1
 10
-168.8313887198683
 20
-98.50796224894427
 30
0.0
  0
VERTEX
  5
9F6
  8
LAYER_1
 10
-168.8858990263997
 20
-98.85656708352816
 30
0.0
  0
VERTEX
  5
9F7
  8
LAYER_1
 10
-168.9248349596364
 20
-99.21300573461957
 30
0.0
  0
VERTEX
  5
9F8
  8
LAYER_1
 10
-168.9481965195784
 20
-99.57727820221848
 30
0.0
  0
SEQEND
  5
EA4
  8
LAYER_1
  0
POLYLINE
  5
7F
  8
LAYER_1
 66
     1
 10
0.0
 20
0.0
 30
0.0
 70
     1
  0
VERTEX
  5
9F9
  8
LAYER_1
 10
-200.5644611186902
 20
-9.179740791268781
 30
0.0
  0
VERTEX
  5
9FA
  8
LAYER_1
 10
-196.4341746248294
 20
-8.797748976807663
 30
0.0
  0
VERTEX
  5
9FB
  8
LAYER_1
 10
-196.3647893929057
 20
-9.155586523703981
 30
0.0
  0
VERTEX
  5
9FC
  8
LAYER_1
 10
-196.287943383356
 20
-9.50092726807642
 30
0.0
  0
VERTEX
  5
9FD
  8
LAYER_1
 10
-196.20363659618
 20
-9.83377120992499
 30
0.0
  0
VERTEX
  5
9FE
  8
LAYER_1
 10
-196.1118690313778
 20
-10.15411834924968
 30
0.0
  0
VERTEX
  5
9FF
  8
LAYER_1
 10
-196.0126406889494
 20
-10.4619686860505
 30
0.0
  0
VERTEX
  5
A00
  8
LAYER_1
 10
-195.9059515688948
 20
-10.75732222032744
 30
0.0
  0
VERTEX
  5
A01
  8
LAYER_1
 10
-195.7918016712141
 20
-11.04017895208051
 30
0.0
  0
VERTEX
  5
A02
  8
LAYER_1
 10
-195.6701909959071
 20
-11.31053888130971
 30
0.0
  0
VERTEX
  5
A03
  8
LAYER_1
 10
-195.541119542974
 20
-11.56840200801503
 30
0.0
  0
VERTEX
  5
A04
  8
LAYER_1
 10
-195.4045873124146
 20
-11.81376833219648
 30
0.0
  0
VERTEX
  5
A05
  8
LAYER_1
 10
-195.2605943042291
 20
-12.04663785385405
 30
0.0
  0
VERTEX
  5
A06
  8
LAYER_1
 10
-195.1091405184174
 20
-12.26701057298775
 30
0.0
  0
VERTEX
  5
A07
  8
LAYER_1
 10
-194.9502259549795
 20
-12.47488648959757
 30
0.0
  0
VERTEX
  5
A08
  8
LAYER_1
 10
-194.7838506139153
 20
-12.67026560368351
 30
0.0
  0
VERTEX
  5
A09
  8
LAYER_1
 10
-194.610014495225
 20
-12.85314791524559
 30
0.0
  0
VERTEX
  5
A0A
  8
LAYER_1
 10
-194.4287175989085
 20
-13.02353342428379
 30
0.0
  0
VERTEX
  5
A0B
  8
LAYER_1
 10
-194.2404262235674
 20
-13.18254124744204
 30
0.0
  0
VERTEX
  5
A0C
  8
LAYER_1
 10
-194.0456066678034
 20
-13.33129050136428
 30
0.0
  0
VERTEX
  5
A0D
  8
LAYER_1
 10
-193.8442589316165
 20
-13.4697811860505
 30
0.0
  0
VERTEX
  5
A0E
  8
LAYER_1
 10
-193.6363830150067
 20
-13.59801330150071
 30
0.0
  0
VERTEX
  5
A0F
  8
LAYER_1
 10
-193.4219789179739
 20
-13.71598684771489
 30
0.0
  0
VERTEX
  5
A10
  8
LAYER_1
 10
-193.2010466405183
 20
-13.82370182469307
 30
0.0
  0
VERTEX
  5
A11
  8
LAYER_1
 10
-192.9735861826397
 20
-13.92115823243522
 30
0.0
  0
VERTEX
  5
A12
  8
LAYER_1
 10
-192.7395975443382
 20
-14.00835607094136
 30
0.0
  0
VERTEX
  5
A13
  8
LAYER_1
 10
-192.4990807256138
 20
-14.08529534021148
 30
0.0
  0
VERTEX
  5
A14
  8
LAYER_1
 10
-192.2520357264664
 20
-14.15197604024559
 30
0.0
  0
VERTEX
  5
A15
  8
LAYER_1
 10
-191.9984625468962
 20
-14.20839817104368
 30
0.0
  0
VERTEX
  5
A16
  8
LAYER_1
 10
-191.738361186903
 20
-14.25456173260575
 30
0.0
  0
VERTEX
  5
A17
  8
LAYER_1
 10
-191.4717316464869
 20
-14.29046672493181
 30
0.0
  0
VERTEX
  5
A18
  8
LAYER_1
 10
-191.1985739256479
 20
-14.31611314802185
 30
0.0
  0
VERTEX
  5
A19
  8
LAYER_1
 10
-190.918888024386
 20
-14.33150100187587
 30
0.0
  0
VERTEX
  5
A1A
  8
LAYER_1
 10
-190.6326739427011
 20
-14.33663028649388
 30
0.0
  0
VERTEX
  5
A1B
  8
LAYER_1
 10
-190.1449256053887
 20
-14.32245480900411
 30
0.0
  0
VERTEX
  5
A1C
  8
LAYER_1
 10
-189.67247186221
 20
-14.27992837653481
 30
0.0
  0
VERTEX
  5
A1D
  8
LAYER_1
 10
-189.4419804634207
 20
-14.24803355218283
 30
0.0
  0
VERTEX
  5
A1E
  8
LAYER_1
 10
-189.215312713165
 20
-14.20905098908597
 30
0.0
  0
VERTEX
  5
A1F
  8
LAYER_1
 10
-188.9924686114426
 20
-14.16298068724423
 30
0.0
  0
VERTEX
  5
A20
  8
LAYER_1
 10
-188.7734481582536
 20
-14.10982264665759
 30
0.0
  0
VERTEX
  5
A21
  8
LAYER_1
 10
-188.5582513535981
 20
-14.04957686732608
 30
0.0
  0
VERTEX
  5
A22
  8
LAYER_1
 10
-188.346878197476
 20
-13.98224334924968
 30
0.0
  0
VERTEX
  5
A23
  8
LAYER_1
 10
-188.1393286898873
 20
-13.9078220924284
 30
0.0
  0
VERTEX
  5
A24
  8
LAYER_1
 10
-187.9356028308321
 20
-13.82631309686223
 30
0.0
  0
VERTEX
  5
A25
  8
LAYER_1
 10
-187.7357006203102
 20
-13.73771636255118
 30
0.0
  0
VERTEX
  5
A26
  8
LAYER_1
 10
-187.5396220583219
 20
-13.64203188949525
 30
0.0
  0
VERTEX
  5
A27
  8
LAYER_1
 10
-187.3473671448669
 20
-13.53925967769443
 30
0.0
  0
VERTEX
  5
A28
  8
LAYER_1
 10
-187.1589358799453
 20
-13.42939972714873
 30
0.0
  0
VERTEX
  5
A29
  8
LAYER_1
 10
-186.7942903734651
 20
-13.19307959583904
 30
0.0
  0
VERTEX
  5
A2A
  8
LAYER_1
 10
-186.4464316166438
 20
-12.93773448158256
 30
0.0
  0
VERTEX
  5
A2B
  8
LAYER_1
 10
-186.1153596094815
 20
-12.66336438437929
 30
0.0
  0
VERTEX
  5
A2C
  8
LAYER_1
 10
-185.8010743519781
 20
-12.36996930422922
 30
0.0
  0
VERTEX
  5
A2D
  8
LAYER_1
 10
-185.5035758441336
 20
-12.05754924113236
 30
0.0
  0
VERTEX
  5
A2E
  8
LAYER_1
 10
-185.2228640859481
 20
-11.7261041950887
 30
0.0
  0
VERTEX
  5
A2F
  8
LAYER_1
 10
-184.9589390774215
 20
-11.37563416609825
 30
0.0
  0
VERTEX
  5
A30
  8
LAYER_1
 10
-184.7118008185538
 20
-11.006139154161
 30
0.0
  0
VERTEX
  5
A31
  8
LAYER_1
 10
-184.4779054399726
 20
-10.61053142053208
 30
0.0
  0
VERTEX
  5
A32
  8
LAYER_1
 10
-184.2537090723055
 20
-10.1817232264666
 30
0.0
  0
VERTEX
  5
A33
  8
LAYER_1
 10
-184.0392117155524
 20
-9.719714571964552
 30
0.0
  0
VERTEX
  5
A34
  8
LAYER_1
 10
-183.8344133697134
 20
-9.224505457025943
 30
0.0
  0
VERTEX
  5
A35
  8
LAYER_1
 10
-183.6393140347884
 20
-8.696095881650773
 30
0.0
  0
VERTEX
  5
A36
  8
LAYER_1
 10
-183.4539137107775
 20
-8.13448584583904
 30
0.0
  0
VERTEX
  5
A37
  8
LAYER_1
 10
-183.2782123976806
 20
-7.539675349590746
 30
0.0
  0
VERTEX
  5
A38
  8
LAYER_1
 10
-183.1122100954979
 20
-6.911664392905889
 30
0.0
  0
VERTEX
  5
A39
  8
LAYER_1
 10
-182.9611293485675
 20
-6.265561050477512
 30
0.0
  0
VERTEX
  5
A3A
  8
LAYER_1
 10
-182.8301927012278
 20
-5.616473396998658
 30
0.0
  0
VERTEX
  5
A3B
  8
LAYER_1
 10
-182.7194001534788
 20
-4.964401432469327
 30
0.0
  0
VERTEX
  5
A3C
  8
LAYER_1
 10
-182.6287517053205
 20
-4.309345156889517
 30
0.0
  0
VERTEX
  5
A3D
  8
LAYER_1
 10
-182.558247356753
 20
-3.651304570259231
 30
0.0
  0
VERTEX
  5
A3E
  8
LAYER_1
 10
-182.5078871077762
 20
-2.990279672578467
 30
0.0
  0
VERTEX
  5
A3F
  8
LAYER_1
 10
-182.4776709583901
 20
-2.326270463847226
 30
0.0
  0
VERTEX
  5
A40
  8
LAYER_1
 10
-182.4675989085947
 20
-1.659276944065507
 30
0.0
  0
VERTEX
  5
A41
  8
LAYER_1
 10
-182.4735675306957
 20
-1.301159618008208
 30
0.0
  0
VERTEX
  5
A42
  8
LAYER_1
 10
-182.4914733969985
 20
-0.7997953615279911
 30
0.0
  0
VERTEX
  5
A43
  8
LAYER_1
 10
-182.6563099526772
 20
-1.053415170958414
 30
0.0
  0
VERTEX
  5
A44
  8
LAYER_1
 10
-182.8285140262618
 20
-1.300973098567555
 30
0.0
  0
VERTEX
  5
A45
  8
LAYER_1
 10
-183.0080856177523
 20
-1.542469144355413
 30
0.0
  0
VERTEX
  5
A46
  8
LAYER_1
 10
-183.1950247271486
 20
-1.777903308321989
 30
0.0
  0
VERTEX
  5
A47
  8
LAYER_1
 10
-183.3893313544508
 20
-2.007275590467282
 30
0.0
  0
VERTEX
  5
A48
  8
LAYER_1
 10
-183.5910054996588
 20
-2.230585990791293
 30
0.0
  0
VERTEX
  5
A49
  8
LAYER_1
 10
-183.8000471627728
 20
-2.447834509294021
 30
0.0
  0
VERTEX
  5
A4A
  8
LAYER_1
 10
-184.0164563437925
 20
-2.659021145975467
 30
0.0
  0
VERTEX
  5
A4B
  8
LAYER_1
 10
-184.2402330427182
 20
-2.86414590083563
 30
0.0
  0
VERTEX
  5
A4C
  8
LAYER_1
 10
-184.4713772595497
 20
-3.063208773874512
 30
0.0
  0
VERTEX
  5
A4D
  8
LAYER_1
 10
-184.7098889942871
 20
-3.25620976509211
 30
0.0
  0
VERTEX
  5
A4E
  8
LAYER_1
 10
-184.9557682469303
 20
-3.443148874488427
 30
0.0
  0
VERTEX
  5
A4F
  8
LAYER_1
 10
-185.2090150174794
 20
-3.624026102063461
 30
0.0
  0
VERTEX
  5
A50
  8
LAYER_1
 10
-185.4696293059344
 20
-3.798841447817212
 30
0.0
  0
VERTEX
  5
A51
  8
LAYER_1
 10
-185.7376111122953
 20
-3.967594911749682
 30
0.0
  0
VERTEX
  5
A52
  8
LAYER_1
 10
-186.012960436562
 20
-4.130286493860869
 30
0.0
  0
VERTEX
  5
A53
  8
LAYER_1
 10
-186.2934390454467
 20
-4.284957740023897
 30
0.0
  0
VERTEX
  5
A54
  8
LAYER_1
 10
-186.5768087056616
 20
-4.429650196111892
 30
0.0
  0
VERTEX
  5
A55
  8
LAYER_1
 10
-186.8630694172066
 20
-4.564363862124852
 30
0.0
  0
VERTEX
  5
A56
  8
LAYER_1
 10
-187.1522211800818
 20
-4.689098738062778
 30
0.0
  0
VERTEX
  5
A57
  8
LAYER_1
 10
-187.4442639942871
 20
-4.80385482392567
 30
0.0
  0
VERTEX
  5
A58
  8
LAYER_1
 10
-187.7391978598226
 20
-4.908632119713529
 30
0.0
  0
VERTEX
  5
A59
  8
LAYER_1
 10
-188.0370227766882
 20
-5.003430625426352
 30
0.0
  0
VERTEX
  5
A5A
  8
LAYER_1
 10
-188.3377387448839
 20
-5.088250341064143
 30
0.0
  0
VERTEX
  5
A5B
  8
LAYER_1
 10
-188.6413457644099
 20
-5.163091266626898
 30
0.0
  0
VERTEX
  5
A5C
  8
LAYER_1
 10
-188.9478438352659
 20
-5.22795340211462
 30
0.0
  0
VERTEX
  5
A5D
  8
LAYER_1
 10
-189.2572329574522
 20
-5.282836747527307
 30
0.0
  0
VERTEX
  5
A5E
  8
LAYER_1
 10
-189.5695131309685
 20
-5.327741302864961
 30
0.0
  0
VERTEX
  5
A5F
  8
LAYER_1
 10
-189.884684355815
 20
-5.36266706812758
 30
0.0
  0
VERTEX
  5
A60
  8
LAYER_1
 10
-190.2027466319917
 20
-5.387614043315166
 30
0.0
  0
VERTEX
  5
A61
  8
LAYER_1
 10
-190.5236999594985
 20
-5.402582228427717
 30
0.0
  0
VERTEX
  5
A62
  8
LAYER_1
 10
-190.8475443383355
 20
-5.407571623465234
 30
0.0
  0
VERTEX
  5
A63
  8
LAYER_1
 10
-191.385466405184
 20
-5.395261340382014
 30
0.0
  0
VERTEX
  5
A64
  8
LAYER_1
 10
-191.912943383356
 20
-5.358330491132356
 30
0.0
  0
VERTEX
  5
A65
  8
LAYER_1
 10
-192.4299752728512
 20
-5.296779075716257
 30
0.0
  0
VERTEX
  5
A66
  8
LAYER_1
 10
-192.9365620736697
 20
-5.21060709413372
 30
0.0
  0
VERTEX
  5
A67
  8
LAYER_1
 10
-193.4327037858116
 20
-5.099814546384742
 30
0.0
  0
VERTEX
  5
A68
  8
LAYER_1
 10
-193.9184004092768
 20
-4.964401432469327
 30
0.0
  0
VERTEX
  5
A69
  8
LAYER_1
 10
-194.3936519440654
 20
-4.804367752387471
 30
0.0
  0
VERTEX
  5
A6A
  8
LAYER_1
 10
-194.8584583901772
 20
-4.619713506139177
 30
0.0
  0
VERTEX
  5
A6B
  8
LAYER_1
 10
-195.3128197476125
 20
-4.410438693724442
 30
0.0
  0
VERTEX
  5
A6C
  8
LAYER_1
 10
-195.756736016371
 20
-4.17654331514327
 30
0.0
  0
VERTEX
  5
A6D
  8
LAYER_1
 10
-196.1902071964528
 20
-3.918027370395658
 30
0.0
  0
VERTEX
  5
A6E
  8
LAYER_1
 10
-196.613233287858
 20
-3.634890859481605
 30
0.0
  0
VERTEX
  5
A6F
  8
LAYER_1
 10
-197.0258142905866
 20
-3.327133782401114
 30
0.0
  0
VERTEX
  5
A70
  8
LAYER_1
 10
-197.4279502046384
 20
-2.994756139154184
 30
0.0
  0
VERTEX
  5
A71
  8
LAYER_1
 10
-197.8196410300135
 20
-2.637757929740814
 30
0.0
  0
VERTEX
  5
A72
  8
LAYER_1
 10
-198.200886766712
 20
-2.256139154161005
 30
0.0
  0
VERTEX
  5
A73
  8
LAYER_1
 10
-198.565159234311
 20
-1.854376278990473
 30
0.0
  0
VERTEX
  5
A74
  8
LAYER_1
 10
-198.9059302523873
 20
-1.436945770804934
 30
0.0
  0
VERTEX
  5
A75
  8
LAYER_1
 10
-199.2231998209412
 20
-1.003847629604389
 30
0.0
  0
VERTEX
  5
A76
  8
LAYER_1
 10
-199.5169679399726
 20
-0.5550818553888361
 30
0.0
  0
VERTEX
  5
A77
  8
LAYER_1
 10
-199.7872346094815
 20
-0.0906484481582768
 30
0.0
  0
VERTEX
  5
A78
  8
LAYER_1
 10
-200.0339998294679
 20
0.3894525920872894
 30
0.0
  0
VERTEX
  5
A79
  8
LAYER_1
 10
-200.2572635999317
 20
0.8852212653478625
 30
0.0
  0
VERTEX
  5
A7A
  8
LAYER_1
 10
-200.457025920873
 20
1.396657571623443
 30
0.0
  0
VERTEX
  5
A7B
  8
LAYER_1
 10
-200.6332867922919
 20
1.923761510914029
 30
0.0
  0
VERTEX
  5
A7C
  8
LAYER_1
 10
-200.7860462141882
 20
2.466533083219623
 30
0.0
  0
VERTEX
  5
A7D
  8
LAYER_1
 10
-200.915304186562
 20
3.024972288540224
 30
0.0
  0
VERTEX
  5
A7E
  8
LAYER_1
 10
-201.0210607094133
 20
3.599079126875831
 30
0.0
  0
VERTEX
  5
A7F
  8
LAYER_1
 10
-201.103315782742
 20
4.188853598226445
 30
0.0
  0
VERTEX
  5
A80
  8
LAYER_1
 10
-201.1620694065483
 20
4.794295702592066
 30
0.0
  0
VERTEX
  5
A81
  8
LAYER_1
 10
-201.1973215808321
 20
5.415405439972695
 30
0.0
  0
VERTEX
  5
A82
  8
LAYER_1
 10
-201.2090723055933
 20
6.052182810368329
 30
0.0
  0
VERTEX
  5
A83
  8
LAYER_1
 10
-201.1968086523703
 20
6.709570578956324
 30
0.0
  0
VERTEX
  5
A84
  8
LAYER_1
 10
-201.1600176927011
 20
7.350731156207347
 30
0.0
  0
VERTEX
  5
A85
  8
LAYER_1
 10
-201.0986994265859
 20
7.975664542121399
 30
0.0
  0
VERTEX
  5
A86
  8
LAYER_1
 10
-201.0128538540245
 20
8.584370736698478
 30
0.0
  0
VERTEX
  5
A87
  8
LAYER_1
 10
-200.902480975017
 20
9.176849739938586
 30
0.0
  0
VERTEX
  5
A88
  8
LAYER_1
 10
-200.7675807895634
 20
9.753101551841723
 30
0.0
  0
VERTEX
  5
A89
  8
LAYER_1
 10
-200.6081532976636
 20
10.31312617240789
 30
0.0
  0
VERTEX
  5
A8A
  8
LAYER_1
 10
-200.4241984993178
 20
10.85692360163709
 30
0.0
  0
VERTEX
  5
A8B
  8
LAYER_1
 10
-200.2157163945258
 20
11.38449383952931
 30
0.0
  0
VERTEX
  5
A8C
  8
LAYER_1
 10
-199.9827069832878
 20
11.89583688608456
 30
0.0
  0
VERTEX
  5
A8D
  8
LAYER_1
 10
-199.7251702656036
 20
12.39095274130284
 30
0.0
  0
VERTEX
  5
A8E
  8
LAYER_1
 10
-199.4431062414733
 20
12.86984140518415
 30
0.0
  0
VERTEX
  5
A8F
  8
LAYER_1
 10
-199.1365149108969
 20
13.33250287772849
 30
0.0
  0
VERTEX
  5
A90
  8
LAYER_1
 10
-198.8053962738744
 20
13.77893715893586
 30
0.0
  0
VERTEX
  5
A91
  8
LAYER_1
 10
-198.4497503304058
 20
14.20914424880625
 30
0.0
  0
VERTEX
  5
A92
  8
LAYER_1
 10
-198.069577080491
 20
14.62312414733968
 30
0.0
  0
VERTEX
  5
A93
  8
LAYER_1
 10
-197.6709384059515
 20
15.01630712824009
 30
0.0
  0
VERTEX
  5
A94
  8
LAYER_1
 10
-197.2598961886084
 20
15.38412346521144
 30
0.0
  0
VERTEX
  5
A95
  8
LAYER_1
 10
-196.8364504284617
 20
15.72657315825373
 30
0.0
  0
VERTEX
  5
A96
  8
LAYER_1
 10
-196.4006011255115
 20
16.04365620736696
 30
0.0
  0
VERTEX
  5
A97
  8
LAYER_1
 10
-195.9523482797578
 20
16.33537261255114
 30
0.0
  0
VERTEX
  5
A98
  8
LAYER_1
 10
-195.4916918912004
 20
16.60172237380625
 30
0.0
  0
VERTEX
  5
A99
  8
LAYER_1
 10
-195.0186319598396
 20
16.84270549113231
 30
0.0
  0
VERTEX
  5
A9A
  8
LAYER_1
 10
-194.5331684856752
 20
17.05832196452931
 30
0.0
  0
VERTEX
  5
A9B
  8
LAYER_1
 10
-194.0353014687072
 20
17.24857179399725
 30
0.0
  0
VERTEX
  5
A9C
  8
LAYER_1
 10
-193.5250309089358
 20
17.41345497953613
 30
0.0
  0
VERTEX
  5
A9D
  8
LAYER_1
 10
-193.0023568063608
 20
17.55297152114596
 30
0.0
  0
VERTEX
  5
A9E
  8
LAYER_1
 10
-192.4672791609822
 20
17.66712141882672
 30
0.0
  0
VERTEX
  5
A9F
  8
LAYER_1
 10
-191.9197979728
 20
17.75590467257843
 30
0.0
  0
VERTEX
  5
AA0
  8
LAYER_1
 10
-191.3599132418144
 20
17.81932128240107
 30
0.0
  0
VERTEX
  5
AA1
  8
LAYER_1
 10
-190.7876249680251
 20
17.85737124829466
 30
0.0
  0
VERTEX
  5
AA2
  8
LAYER_1
 10
-190.2029331514324
 20
17.87005457025919
 30
0.0
  0
VERTEX
  5
AA3
  8
LAYER_1
 10
-189.7784615343621
 20
17.86287357179398
 30
0.0
  0
VERTEX
  5
AA4
  8
LAYER_1
 10
-189.3585596435879
 20
17.84133057639835
 30
0.0
  0
VERTEX
  5
AA5
  8
LAYER_1
 10
-188.9432274791097
 20
17.80542558407229
 30
0.0
  0
VERTEX
  5
AA6
  8
LAYER_1
 10
-188.5324650409276
 20
17.75515859481581
 30
0.0
  0
VERTEX
  5
AA7
  8
LAYER_1
 10
-188.1262723290415
 20
17.6905296086289
 30
0.0
  0
VERTEX
  5
AA8
  8
LAYER_1
 10
-187.7246493434515
 20
17.61153862551158
 30
0.0
  0
VERTEX
  5
AA9
  8
LAYER_1
 10
-187.3275960841574
 20
17.51818564546382
 30
0.0
  0
VERTEX
  5
AAA
  8
LAYER_1
 10
-186.9351125511595
 20
17.41047066848565
 30
0.0
  0
VERTEX
  5
AAB
  8
LAYER_1
 10
-186.5471987444576
 20
17.28839369457706
 30
0.0
  0
VERTEX
  5
AAC
  8
LAYER_1
 10
-186.1638546640517
 20
17.15195472373804
 30
0.0
  0
VERTEX
  5
AAD
  8
LAYER_1
 10
-185.7850803099419
 20
17.0011537559686
 30
0.0
  0
VERTEX
  5
AAE
  8
LAYER_1
 10
-185.4108756821281
 20
16.83599079126874
 30
0.0
  0
VERTEX
  5
AAF
  8
LAYER_1
 10
-185.0412407806104
 20
16.65646582963845
 30
0.0
  0
VERTEX
  5
AB0
  8
LAYER_1
 10
-184.6761756053887
 20
16.46257887107774
 30
0.0
  0
VERTEX
  5
AB1
  8
LAYER_1
 10
-184.3156801564631
 20
16.25432991558661
 30
0.0
  0
VERTEX
  5
AB2
  8
LAYER_1
 10
-183.9597544338335
 20
16.03171896316505
 30
0.0
  0
VERTEX
  5
AB3
  8
LAYER_1
 10
-183.6114293784105
 20
15.79581850059684
 30
0.0
  0
VERTEX
  5
AB4
  8
LAYER_1
 10
-183.2737359311049
 20
15.54770101466574
 30
0.0
  0
VERTEX
  5
AB5
  8
LAYER_1
 10
-182.9466740919167
 20
15.28736650537174
 30
0.0
  0
VERTEX
  5
AB6
  8
LAYER_1
 10
-182.6302438608458
 20
15.01481497271485
 30
0.0
  0
VERTEX
  5
AB7
  8
LAYER_1
 10
-182.3244452378921
 20
14.73004641669507
 30
0.0
  0
VERTEX
  5
AB8
  8
LAYER_1
 10
-182.0292782230558
 20
14.43306083731239
 30
0.0
  0
VERTEX
  5
AB9
  8
LAYER_1
 10
-181.7447428163369
 20
14.12385823456683
 30
0.0
  0
VERTEX
  5
ABA
  8
LAYER_1
 10
-181.4708390177352
 20
13.80243860845837
 30
0.0
  0
VERTEX
  5
ABB
  8
LAYER_1
 10
-181.2075668272509
 20
13.46880195898702
 30
0.0
  0
VERTEX
  5
ABC
  8
LAYER_1
 10
-180.9549262448839
 20
13.12294828615277
 30
0.0
  0
VERTEX
  5
ABD
  8
LAYER_1
 10
-180.7129172706343
 20
12.76487758995564
 30
0.0
  0
VERTEX
  5
ABE
  8
LAYER_1
 10
-180.481539904502
 20
12.39458987039561
 30
0.0
  0
VERTEX
  5
ABF
  8
LAYER_1
 10
-180.2607941464869
 20
12.01208512747269
 30
0.0
  0
VERTEX
  5
AC0
  8
LAYER_1
 10
-180.0506799965892
 20
11.61736336118688
 30
0.0
  0
VERTEX
  5
AC1
  8
LAYER_1
 10
-179.8511974548089
 20
11.21042457153817
 30
0.0
  0
VERTEX
  5
AC2
  8
LAYER_1
 10
-179.6623465211459
 20
10.79126875852658
 30
0.0
  0
VERTEX
  5
AC3
  8
LAYER_1
 10
-179.4845468643416
 20
10.35411381949179
 30
0.0
  0
VERTEX
  5
AC4
  8
LAYER_1
 10
-179.3182181531377
 20
9.893177651773508
 30
0.0
  0
VERTEX
  5
AC5
  8
LAYER_1
 10
-179.163360387534
 20
9.408460255371736
 30
0.0
  0
VERTEX
  5
AC6
  8
LAYER_1
 10
-179.0199735675306
 20
8.89996163028647
 30
0.0
  0
VERTEX
  5
AC7
  8
LAYER_1
 10
-178.8880576931275
 20
8.367681776517712
 30
0.0
  0
VERTEX
  5
AC8
  8
LAYER_1
 10
-178.7676127643246
 20
7.811620694065461
 30
0.0
  0
VERTEX
  5
AC9
  8
LAYER_1
 10
-178.658638781122
 20
7.231778382929718
 30
0.0
  0
VERTEX
  5
ACA
  8
LAYER_1
 10
-178.5611357435197
 20
6.628154843110481
 30
0.0
  0
VERTEX
  5
ACB
  8
LAYER_1
 10
-178.4751036515176
 20
6.000750074607753
 30
0.0
  0
VERTEX
  5
ACC
  8
LAYER_1
 10
-178.4005425051159
 20
5.349564077421531
 30
0.0
  0
VERTEX
  5
ACD
  8
LAYER_1
 10
-178.3374523043144
 20
4.674596851551819
 30
0.0
  0
VERTEX
  5
ACE
  8
LAYER_1
 10
-178.2858330491131
 20
3.975848396998613
 30
0.0
  0
VERTEX
  5
ACF
  8
LAYER_1
 10
-178.2456847395122
 20
3.253318713761914
 30
0.0
  0
VERTEX
  5
AD0
  8
LAYER_1
 10
-178.2170073755115
 20
2.507007801841723
 30
0.0
  0
VERTEX
  5
AD1
  8
LAYER_1
 10
-178.1998009571111
 20
1.73691566123804
 30
0.0
  0
VERTEX
  5
AD2
  8
LAYER_1
 10
-178.194065484311
 20
0.9430422919508636
 30
0.0
  0
VERTEX
  5
AD3
  8
LAYER_1
 10
-178.1997543272509
 20
0.1151291247441786
 30
0.0
  0
VERTEX
  5
AD4
  8
LAYER_1
 10
-178.2168208560709
 20
-0.6914275665075269
 30
0.0
  0
VERTEX
  5
AD5
  8
LAYER_1
 10
-178.2452650707707
 20
-1.476627781804253
 30
0.0
  0
VERTEX
  5
AD6
  8
LAYER_1
 10
-178.2850869713505
 20
-2.240471521145999
 30
0.0
  0
VERTEX
  5
AD7
  8
LAYER_1
 10
-178.3362865578103
 20
-2.982958784532766
 30
0.0
  0
VERTEX
  5
AD8
  8
LAYER_1
 10
-178.39886383015
 20
-3.704089571964553
 30
0.0
  0
VERTEX
  5
AD9
  8
LAYER_1
 10
-178.4728187883696
 20
-4.403863883441361
 30
0.0
  0
VERTEX
  5
ADA
  8
LAYER_1
 10
-178.5581514324692
 20
-5.082281718963189
 30
0.0
  0
VERTEX
  5
ADB
  8
LAYER_1
 10
-178.6548617624487
 20
-5.739343078530037
 30
0.0
  0
VERTEX
  5
ADC
  8
LAYER_1
 10
-178.7629497783082
 20
-6.375047962141905
 30
0.0
  0
VERTEX
  5
ADD
  8
LAYER_1
 10
-178.8824154800476
 20
-6.989396369798795
 30
0.0
  0
VERTEX
  5
ADE
  8
LAYER_1
 10
-179.013258867667
 20
-7.582388301500705
 30
0.0
  0
VERTEX
  5
ADF
  8
LAYER_1
 10
-179.1554799411663
 20
-8.154023757247636
 30
0.0
  0
VERTEX
  5
AE0
  8
LAYER_1
 10
-179.3090787005456
 20
-8.704302737039587
 30
0.0
  0
VERTEX
  5
AE1
  8
LAYER_1
 10
-179.4740551458048
 20
-9.233225240876557
 30
0.0
  0
VERTEX
  5
AE2
  8
LAYER_1
 10
-179.6504092769439
 20
-9.74079126875855
 30
0.0
  0
VERTEX
  5
AE3
  8
LAYER_1
 10
-179.8380012043825
 20
-10.23026491089702
 30
0.0
  0
VERTEX
  5
AE4
  8
LAYER_1
 10
-180.0366910385401
 20
-10.70491025750343
 30
0.0
  0
VERTEX
  5
AE5
  8
LAYER_1
 10
-180.2464787794166
 20
-11.16472730857778
 30
0.0
  0
VERTEX
  5
AE6
  8
LAYER_1
 10
-180.4673644270122
 20
-11.60971606412008
 30
0.0
  0
VERTEX
  5
AE7
  8
LAYER_1
 10
-180.6993479813266
 20
-12.03987652413031
 30
0.0
  0
VERTEX
  5
AE8
  8
LAYER_1
 10
-180.9424294423601
 20
-12.45520868860848
 30
0.0
  0
VERTEX
  5
AE9
  8
LAYER_1
 10
-181.1966088101124
 20
-12.85571255755459
 30
0.0
  0
VERTEX
  5
AEA
  8
LAYER_1
 10
-181.4618860845838
 20
-13.24138813096864
 30
0.0
  0
VERTEX
  5
AEB
  8
LAYER_1
 10
-181.7382612657741
 20
-13.61223540885064
 30
0.0
  0
VERTEX
  5
AEC
  8
LAYER_1
 10
-182.0257343536834
 20
-13.96825439120057
 30
0.0
  0
VERTEX
  5
AED
  8
LAYER_1
 10
-182.3243053483116
 20
-14.30944507801844
 30
0.0
  0
VERTEX
  5
AEE
  8
LAYER_1
 10
-182.6339742496588
 20
-14.63580746930425
 30
0.0
  0
VERTEX
  5
AEF
  8
LAYER_1
 10
-182.954741057725
 20
-14.947341565058
 30
0.0
  0
VERTEX
  5
AF0
  8
LAYER_1
 10
-183.2866057725101
 20
-15.24404736527969
 30
0.0
  0
VERTEX
  5
AF1
  8
LAYER_1
 10
-183.6295683940142
 20
-15.52592486996933
 30
0.0
  0
VERTEX
  5
AF2
  8
LAYER_1
 10
-183.9836289222373
 20
-15.7929740791269
 30
0.0
  0
VERTEX
  5
AF3
  8
LAYER_1
 10
-184.3471086822134
 20
-16.04449554484995
 30
0.0
  0
VERTEX
  5
AF4
  8
LAYER_1
 10
-184.7183289989767
 20
-16.27978981923604
 30
0.0
  0
VERTEX
  5
AF5
  8
LAYER_1
 10
-185.0972898725272
 20
-16.49885690228515
 30
0.0
  0
VERTEX
  5
AF6
  8
LAYER_1
 10
-185.4839913028648
 20
-16.70169679399729
 30
0.0
  0
VERTEX
  5
AF7
  8
LAYER_1
 10
-185.8784332899896
 20
-16.88830949437246
 30
0.0
  0
VERTEX
  5
AF8
  8
LAYER_1
 10
-186.2806158339016
 20
-17.05869500341066
 30
0.0
  0
VERTEX
  5
AF9
  8
LAYER_1
 10
-186.6905389346008
 20
-17.21285332111189
 30
0.0
  0
VERTEX
  5
AFA
  8
LAYER_1
 10
-187.1082025920872
 20
-17.35078444747615
 30
0.0
  0
VERTEX
  5
AFB
  8
LAYER_1
 10
-187.5336068063607
 20
-17.47248838250344
 30
0.0
  0
VERTEX
  5
AFC
  8
LAYER_1
 10
-187.9667515774214
 20
-17.57796512619375
 30
0.0
  0
VERTEX
  5
AFD
  8
LAYER_1
 10
-188.4076369052693
 20
-17.66721467854709
 30
0.0
  0
VERTEX
  5
AFE
  8
LAYER_1
 10
-188.8562627899044
 20
-17.74023703956346
 30
0.0
  0
VERTEX
  5
AFF
  8
LAYER_1
 10
-189.3126292313266
 20
-17.79703220924286
 30
0.0
  0
VERTEX
  5
B00
  8
LAYER_1
 10
-189.7767362295361
 20
-17.83760018758529
 30
0.0
  0
VERTEX
  5
B01
  8
LAYER_1
 10
-190.2485837845327
 20
-17.86194097459074
 30
0.0
  0
VERTEX
  5
B02
  8
LAYER_1
 10
-190.7281718963164
 20
-17.87005457025923
 30
0.0
  0
VERTEX
  5
B03
  8
LAYER_1
 10
-191.2355980346179
 20
-17.86114826696796
 30
0.0
  0
VERTEX
  5
B04
  8
LAYER_1
 10
-191.7312734481581
 20
-17.83442935709416
 30
0.0
  0
VERTEX
  5
B05
  8
LAYER_1
 10
-192.2151981369371
 20
-17.78989784063781
 30
0.0
  0
VERTEX
  5
B06
  8
LAYER_1
 10
-192.6873721009549
 20
-17.72755371759893
 30
0.0
  0
VERTEX
  5
B07
  8
LAYER_1
 10
-193.1477953402113
 20
-17.64739698797752
 30
0.0
  0
VERTEX
  5
B08
  8
LAYER_1
 10
-193.5964678547066
 20
-17.54942765177356
 30
0.0
  0
VERTEX
  5
B09
  8
LAYER_1
 10
-194.0333896444405
 20
-17.43364570898707
 30
0.0
  0
VERTEX
  5
B0A
  8
LAYER_1
 10
-194.4585607094133
 20
-17.30005115961803
 30
0.0
  0
VERTEX
  5
B0B
  8
LAYER_1
 10
-194.8719810496247
 20
-17.14864400366646
 30
0.0
  0
VERTEX
  5
B0C
  8
LAYER_1
 10
-195.2736506650749
 20
-16.97942424113236
 30
0.0
  0
VERTEX
  5
B0D
  8
LAYER_1
 10
-195.6635695557639
 20
-16.79239187201571
 30
0.0
  0
VERTEX
  5
B0E
  8
LAYER_1
 10
-196.0417377216916
 20
-16.58754689631653
 30
0.0
  0
VERTEX
  5
B0F
  8
LAYER_1
 10
-196.408155162858
 20
-16.36488931403481
 30
0.0
  0
VERTEX
  5
B10
  8
LAYER_1
 10
-196.7628218792632
 20
-16.12441912517055
 30
0.0
  0
VERTEX
  5
B11
  8
LAYER_1
 10
-197.1057378709071
 20
-15.86613632972376
 30
0.0
  0
VERTEX
  5
B12
  8
LAYER_1
 10
-197.4369031377898
 20
-15.59004092769443
 30
0.0
  0
VERTEX
  5
B13
  8
LAYER_1
 10
-197.7540794466234
 20
-15.29781159404845
 30
0.0
  0
VERTEX
  5
B14
  8
LAYER_1
 10
-198.05502856412
 20
-14.99112700375173
 30
0.0
  0
VERTEX
  5
B15
  8
LAYER_1
 10
-198.3397504902796
 20
-14.66998715680425
 30
0.0
  0
VERTEX
  5
B16
  8
LAYER_1
 10
-198.6082452251022
 20
-14.33439205320603
 30
0.0
  0
VERTEX
  5
B17
  8
LAYER_1
 10
-198.8605127685879
 20
-13.98434169295705
 30
0.0
  0
VERTEX
  5
B18
  8
LAYER_1
 10
-199.0965531207366
 20
-13.61983607605732
 30
0.0
  0
VERTEX
  5
B19
  8
LAYER_1
 10
-199.3163662815483
 20
-13.24087520250685
 30
0.0
  0
VERTEX
  5
B1A
  8
LAYER_1
 10
-199.5199522510231
 20
-12.84745907230562
 30
0.0
  0
VERTEX
  5
B1B
  8
LAYER_1
 10
-199.7073110291609
 20
-12.43958768545364
 30
0.0
  0
VERTEX
  5
B1C
  8
LAYER_1
 10
-199.8784426159617
 20
-12.01726104195091
 30
0.0
  0
VERTEX
  5
B1D
  8
LAYER_1
 10
-200.0333470114256
 20
-11.58047914179743
 30
0.0
  0
VERTEX
  5
B1E
  8
LAYER_1
 10
-200.1720242155524
 20
-11.1292419849932
 30
0.0
  0
VERTEX
  5
B1F
  8
LAYER_1
 10
-200.2944742283423
 20
-10.66354957153822
 30
0.0
  0
VERTEX
  5
B20
  8
LAYER_1
 10
-200.4006970497953
 20
-10.18340190143249
 30
0.0
  0
VERTEX
  5
B21
  8
LAYER_1
 10
-200.4906926799112
 20
-9.688798974676011
 30
0.0
  0
SEQEND
  5
EA5
  8
LAYER_1
  0
POLYLINE
  5
80
  8
LAYER_1
 66
     1
 10
0.0
 20
0.0
 30
0.0
 70
     1
  0
VERTEX
  5
B22
  8
LAYER_1
 10
-182.9689631650749
 20
6.267053206002704
 30
0.0
  0
VERTEX
  5
B23
  8
LAYER_1
 10
-182.9766570920019
 20
6.72365279672576
 30
0.0
  0
VERTEX
  5
B24
  8
LAYER_1
 10
-182.999738872783
 20
7.168315143246906
 30
0.0
  0
VERTEX
  5
B25
  8
LAYER_1
 10
-183.0382085074181
 20
7.601040245566142
 30
0.0
  0
VERTEX
  5
B26
  8
LAYER_1
 10
-183.0920659959071
 20
8.021828103683468
 30
0.0
  0
VERTEX
  5
B27
  8
LAYER_1
 10
-183.1613113382502
 20
8.430678717598884
 30
0.0
  0
VERTEX
  5
B28
  8
LAYER_1
 10
-183.2459445344474
 20
8.827592087312391
 30
0.0
  0
VERTEX
  5
B29
  8
LAYER_1
 10
-183.3459655844985
 20
9.212568212823987
 30
0.0
  0
VERTEX
  5
B2A
  8
LAYER_1
 10
-183.4613744884037
 20
9.585607094133673
 30
0.0
  0
VERTEX
  5
B2B
  8
LAYER_1
 10
-183.5921712461629
 20
9.946708731241449
 30
0.0
  0
VERTEX
  5
B2C
  8
LAYER_1
 10
-183.7383558577762
 20
10.29587312414731
 30
0.0
  0
VERTEX
  5
B2D
  8
LAYER_1
 10
-183.8999283232434
 20
10.63310027285127
 30
0.0
  0
VERTEX
  5
B2E
  8
LAYER_1
 10
-184.0768886425647
 20
10.95839017735332
 30
0.0
  0
VERTEX
  5
B2F
  8
LAYER_1
 10
-184.26923681574
 20
11.27174283765346
 30
0.0
  0
VERTEX
  5
B30
  8
LAYER_1
 10
-184.4769728427693
 20
11.57315825375168
 30
0.0
  0
VERTEX
  5
B31
  8
LAYER_1
 10
-184.7000967236527
 20
11.862636425648
 30
0.0
  0
VERTEX
  5
B32
  8
LAYER_1
 10
-184.9386084583901
 20
12.14017735334241
 30
0.0
  0
VERTEX
  5
B33
  8
LAYER_1
 10
-185.1879383206854
 20
12.40326302438606
 30
0.0
  0
VERTEX
  5
B34
  8
LAYER_1
 10
-185.4435165842427
 20
12.64937542633013
 30
0.0
  0
VERTEX
  5
B35
  8
LAYER_1
 10
-185.705343249062
 20
12.8785145591746
 30
0.0
  0
VERTEX
  5
B36
  8
LAYER_1
 10
-185.9734183151431
 20
13.09068042291949
 30
0.0
  0
VERTEX
  5
B37
  8
LAYER_1
 10
-186.2477417824863
 20
13.28587301756478
 30
0.0
  0
VERTEX
  5
B38
  8
LAYER_1
 10
-186.5283136510913
 20
13.46409234311048
 30
0.0
  0
VERTEX
  5
B39
  8
LAYER_1
 10
-186.8151339209583
 20
13.62533839955659
 30
0.0
  0
VERTEX
  5
B3A
  8
LAYER_1
 10
-187.1082025920872
 20
13.76961118690312
 30
0.0
  0
VERTEX
  5
B3B
  8
LAYER_1
 10
-187.4075196644781
 20
13.89691070515005
 30
0.0
  0
VERTEX
  5
B3C
  8
LAYER_1
 10
-187.7130851381309
 20
14.00723695429739
 30
0.0
  0
VERTEX
  5
B3D
  8
LAYER_1
 10
-188.0248990130456
 20
14.10058993434513
 30
0.0
  0
VERTEX
  5
B3E
  8
LAYER_1
 10
-188.3429612892223
 20
14.17696964529329
 30
0.0
  0
VERTEX
  5
B3F
  8
LAYER_1
 10
-188.6672719666609
 20
14.23637608714186
 30
0.0
  0
VERTEX
  5
B40
  8
LAYER_1
 10
-188.9978310453614
 20
14.27880925989084
 30
0.0
  0
VERTEX
  5
B41
  8
LAYER_1
 10
-189.3346385253239
 20
14.30426916354022
 30
0.0
  0
VERTEX
  5
B42
  8
LAYER_1
 10
-189.6776944065483
 20
14.31275579809002
 30
0.0
  0
VERTEX
  5
B43
  8
LAYER_1
 10
-190.0329206812755
 20
14.30361634549793
 30
0.0
  0
VERTEX
  5
B44
  8
LAYER_1
 10
-190.3823648533423
 20
14.27619798772167
 30
0.0
  0
VERTEX
  5
B45
  8
LAYER_1
 10
-190.7260269227488
 20
14.23050072476124
 30
0.0
  0
VERTEX
  5
B46
  8
LAYER_1
 10
-191.0639068894951
 20
14.16652455661662
 30
0.0
  0
VERTEX
  5
B47
  8
LAYER_1
 10
-191.396004753581
 20
14.08426948328784
 30
0.0
  0
VERTEX
  5
B48
  8
LAYER_1
 10
-191.7223205150067
 20
13.98373550477488
 30
0.0
  0
VERTEX
  5
B49
  8
LAYER_1
 10
-192.042854173772
 20
13.86492262107774
 30
0.0
  0
VERTEX
  5
B4A
  8
LAYER_1
 10
-192.3576057298771
 20
13.72783083219643
 30
0.0
  0
VERTEX
  5
B4B
  8
LAYER_1
 10
-192.6665751833218
 20
13.57246013813095
 30
0.0
  0
VERTEX
  5
B4C
  8
LAYER_1
 10
-192.9697625341063
 20
13.39881053888129
 30
0.0
  0
VERTEX
  5
B4D
  8
LAYER_1
 10
-193.2671677822304
 20
13.20688203444745
 30
0.0
  0
VERTEX
  5
B4E
  8
LAYER_1
 10
-193.5587909276943
 20
12.99667462482945
 30
0.0
  0
VERTEX
  5
B4F
  8
LAYER_1
 10
-193.8446319704978
 20
12.76818831002726
 30
0.0
  0
VERTEX
  5
B50
  8
LAYER_1
 10
-194.1246909106411
 20
12.5214230900409
 30
0.0
  0
VERTEX
  5
B51
  8
LAYER_1
 10
-194.3989677481241
 20
12.25637896487037
 30
0.0
  0
VERTEX
  5
B52
  8
LAYER_1
 10
-194.6674624829467
 20
11.97305593451567
 30
0.0
  0
VERTEX
  5
B53
  8
LAYER_1
 10
-194.92476605133
 20
11.67518438778988
 30
0.0
  0
VERTEX
  5
B54
  8
LAYER_1
 10
-195.1654693894951
 20
11.36649471350612
 30
0.0
  0
VERTEX
  5
B55
  8
LAYER_1
 10
-195.3895724974419
 20
11.04698691166437
 30
0.0
  0
VERTEX
  5
B56
  8
LAYER_1
 10
-195.5970753751704
 20
10.71666098226464
 30
0.0
  0
VERTEX
  5
B57
  8
LAYER_1
 10
-195.7879780226807
 20
10.37551692530693
 30
0.0
  0
VERTEX
  5
B58
  8
LAYER_1
 10
-195.9622804399726
 20
10.02355474079125
 30
0.0
  0
VERTEX
  5
B59
  8
LAYER_1
 10
-196.1199826270463
 20
9.660774428717575
 30
0.0
  0
VERTEX
  5
B5A
  8
LAYER_1
 10
-196.2610845839017
 20
9.287175989085926
 30
0.0
  0
VERTEX
  5
B5B
  8
LAYER_1
 10
-196.3855863105388
 20
8.902759421896294
 30
0.0
  0
VERTEX
  5
B5C
  8
LAYER_1
 10
-196.4934878069576
 20
8.507524727148681
 30
0.0
  0
VERTEX
  5
B5D
  8
LAYER_1
 10
-196.5847890731582
 20
8.101471904843088
 30
0.0
  0
VERTEX
  5
B5E
  8
LAYER_1
 10
-196.6594901091404
 20
7.684600954979514
 30
0.0
  0
VERTEX
  5
B5F
  8
LAYER_1
 10
-196.7175909149044
 20
7.256911877557959
 30
0.0
  0
VERTEX
  5
B60
  8
LAYER_1
 10
-196.7590914904501
 20
6.818404672578422
 30
0.0
  0
VERTEX
  5
B61
  8
LAYER_1
 10
-196.7839918357775
 20
6.369079340040905
 30
0.0
  0
VERTEX
  5
B62
  8
LAYER_1
 10
-196.7922919508867
 20
5.908935879945407
 30
0.0
  0
VERTEX
  5
B63
  8
LAYER_1
 10
-196.784411504519
 20
5.496028468195748
 30
0.0
  0
VERTEX
  5
B64
  8
LAYER_1
 10
-196.760770165416
 20
5.092913327080468
 30
0.0
  0
VERTEX
  5
B65
  8
LAYER_1
 10
-196.7213679335777
 20
4.699590456599568
 30
0.0
  0
VERTEX
  5
B66
  8
LAYER_1
 10
-196.666204809004
 20
4.316059856753046
 30
0.0
  0
VERTEX
  5
B67
  8
LAYER_1
 10
-196.595280791695
 20
3.942321527540904
 30
0.0
  0
VERTEX
  5
B68
  8
LAYER_1
 10
-196.5085958816506
 20
3.578375468963142
 30
0.0
  0
VERTEX
  5
B69
  8
LAYER_1
 10
-196.406150078871
 20
3.224221681019759
 30
0.0
  0
VERTEX
  5
B6A
  8
LAYER_1
 10
-196.287943383356
 20
2.879860163710755
 30
0.0
  0
VERTEX
  5
B6B
  8
LAYER_1
 10
-196.1539757951056
 20
2.54529091703613
 30
0.0
  0
VERTEX
  5
B6C
  8
LAYER_1
 10
-196.0042473141199
 20
2.220513940995885
 30
0.0
  0
VERTEX
  5
B6D
  8
LAYER_1
 10
-195.8387579403989
 20
1.905529235590019
 30
0.0
  0
VERTEX
  5
B6E
  8
LAYER_1
 10
-195.6575076739426
 20
1.600336800818533
 30
0.0
  0
VERTEX
  5
B6F
  8
LAYER_1
 10
-195.4604965147509
 20
1.304936636681425
 30
0.0
  0
VERTEX
  5
B70
  8
LAYER_1
 10
-195.2477244628239
 20
1.019328743178697
 30
0.0
  0
VERTEX
  5
B71
  8
LAYER_1
 10
-195.0191915181616
 20
0.7435131203103478
 30
0.0
  0
VERTEX
  5
B72
  8
LAYER_1
 10
-194.7748976807639
 20
0.4774897680763779
 30
0.0
  0
VERTEX
  5
B73
  8
LAYER_1
 10
-194.5190396380456
 20
0.2245227766882464
 30
0.0
  0
VERTEX
  5
B74
  8
LAYER_1
 10
-194.2558140774215
 20
-0.0121237636425862
 30
0.0
  0
VERTEX
  5
B75
  8
LAYER_1
 10
-193.9852209988914
 20
-0.2324498529161199
 30
0.0
  0
VERTEX
  5
B76
  8
LAYER_1
 10
-193.7072604024556
 20
-0.4364554911323549
 30
0.0
  0
VERTEX
  5
B77
  8
LAYER_1
 10
-193.4219322881138
 20
-0.624140678291291
 30
0.0
  0
VERTEX
  5
B78
  8
LAYER_1
 10
-193.1292366558662
 20
-0.7955054143929283
 30
0.0
  0
VERTEX
  5
B79
  8
LAYER_1
 10
-192.8291735057127
 20
-0.9505496994372669
 30
0.0
  0
VERTEX
  5
B7A
  8
LAYER_1
 10
-192.5217428376534
 20
-1.089273533424306
 30
0.0
  0
VERTEX
  5
B7B
  8
LAYER_1
 10
-192.2069446516882
 20
-1.211676916354047
 30
0.0
  0
VERTEX
  5
B7C
  8
LAYER_1
 10
-191.8847789478171
 20
-1.317759848226489
 30
0.0
  0
VERTEX
  5
B7D
  8
LAYER_1
 10
-191.5552457260401
 20
-1.407522329041633
 30
0.0
  0
VERTEX
  5
B7E
  8
LAYER_1
 10
-191.2183449863573
 20
-1.480964358799477
 30
0.0
  0
VERTEX
  5
B7F
  8
LAYER_1
 10
-190.8740767287686
 20
-1.538085937500023
 30
0.0
  0
VERTEX
  5
B80
  8
LAYER_1
 10
-190.5224409532741
 20
-1.57888706514327
 30
0.0
  0
VERTEX
  5
B81
  8
LAYER_1
 10
-190.1634376598737
 20
-1.603367741729218
 30
0.0
  0
VERTEX
  5
B82
  8
LAYER_1
 10
-189.7970668485674
 20
-1.611527967257867
 30
0.0
  0
VERTEX
  5
B83
  8
LAYER_1
 10
-189.4281780248123
 20
-1.603367741729218
 30
0.0
  0
VERTEX
  5
B84
  8
LAYER_1
 10
-189.0675893161663
 20
-1.57888706514327
 30
0.0
  0
VERTEX
  5
B85
  8
LAYER_1
 10
-188.7153007226295
 20
-1.538085937500023
 30
0.0
  0
VERTEX
  5
B86
  8
LAYER_1
 10
-188.3713122442018
 20
-1.480964358799477
 30
0.0
  0
VERTEX
  5
B87
  8
LAYER_1
 10
-188.0356238808833
 20
-1.407522329041633
 30
0.0
  0
VERTEX
  5
B88
  8
LAYER_1
 10
-187.7082356326738
 20
-1.317759848226489
 30
0.0
  0
VERTEX
  5
B89
  8
LAYER_1
 10
-187.3891474995736
 20
-1.211676916354047
 30
0.0
  0
VERTEX
  5
B8A
  8
LAYER_1
 10
-187.0783594815825
 20
-1.089273533424306
 30
0.0
  0
VERTEX
  5
B8B
  8
LAYER_1
 10
-186.7758715787005
 20
-0.9505496994372669
 30
0.0
  0
VERTEX
  5
B8C
  8
LAYER_1
 10
-186.4816837909276
 20
-0.7955054143929283
 30
0.0
  0
VERTEX
  5
B8D
  8
LAYER_1
 10
-186.1957961182639
 20
-0.624140678291291
 30
0.0
  0
VERTEX
  5
B8E
  8
LAYER_1
 10
-185.9182085607093
 20
-0.4364554911323549
 30
0.0
  0
VERTEX
  5
B8F
  8
LAYER_1
 10
-185.6489211182639
 20
-0.2324498529161199
 30
0.0
  0
VERTEX
  5
B90
  8
LAYER_1
 10
-185.3879337909276
 20
-0.0121237636425862
 30
0.0
  0
VERTEX
  5
B91
  8
LAYER_1
 10
-185.1352465787004
 20
0.2245227766882464
 30
0.0
  0
VERTEX
  5
B92
  8
LAYER_1
 10
-184.8908594815824
 20
0.4774897680763779
 30
0.0
  0
VERTEX
  5
B93
  8
LAYER_1
 10
-184.6581298495053
 20
0.7449120161152589
 30
0.0
  0
VERTEX
  5
B94
  8
LAYER_1
 10
-184.440415032401
 20
1.024924326398342
 30
0.0
  0
VERTEX
  5
B95
  8
LAYER_1
 10
-184.2377150302693
 20
1.317526698925627
 30
0.0
  0
VERTEX
  5
B96
  8
LAYER_1
 10
-184.0500298431104
 20
1.622719133697114
 30
0.0
  0
VERTEX
  5
B97
  8
LAYER_1
 10
-183.8773594709242
 20
1.940501630712802
 30
0.0
  0
VERTEX
  5
B98
  8
LAYER_1
 10
-183.7197039137107
 20
2.270874189972693
 30
0.0
  0
VERTEX
  5
B99
  8
LAYER_1
 10
-183.5770631714699
 20
2.613836811476785
 30
0.0
  0
VERTEX
  5
B9A
  8
LAYER_1
 10
-183.4494372442018
 20
2.969389495225079
 30
0.0
  0
VERTEX
  5
B9B
  8
LAYER_1
 10
-183.3368261319065
 20
3.337532241217575
 30
0.0
  0
VERTEX
  5
B9C
  8
LAYER_1
 10
-183.2392298345838
 20
3.718265049454273
 30
0.0
  0
VERTEX
  5
B9D
  8
LAYER_1
 10
-183.1566483522339
 20
4.111587919935173
 30
0.0
  0
VERTEX
  5
B9E
  8
LAYER_1
 10
-183.0890816848567
 20
4.517500852660276
 30
0.0
  0
VERTEX
  5
B9F
  8
LAYER_1
 10
-183.0365298324521
 20
4.936003847629579
 30
0.0
  0
VERTEX
  5
BA0
  8
LAYER_1
 10
-182.9989927950204
 20
5.367096904843086
 30
0.0
  0
VERTEX
  5
BA1
  8
LAYER_1
 10
-182.9764705725613
 20
5.810780024300794
 30
0.0
  0
SEQEND
  5
EA6
  8
LAYER_1
  0
POLYLINE
  5
81
  8
LAYER_1
 66
     1
 10
0.0
 20
0.0
 30
0.0
 70
     1
  0
VERTEX
  5
BA2
  8
LAYER_1
 10
-172.6126422205566
 20
76.83840557952487
 30
0.0
  0
VERTEX
  5
BA3
  8
LAYER_1
 10
-176.9100501332442
 20
76.83840557952489
 30
0.0
  0
VERTEX
  5
BA4
  8
LAYER_1
 10
-176.9100501332441
 20
104.2224437787063
 30
0.0
  0
VERTEX
  5
BA5
  8
LAYER_1
 10
-177.3131186444992
 20
103.8523892084471
 30
0.0
  0
VERTEX
  5
BA6
  8
LAYER_1
 10
-177.7464033051404
 20
103.4823346381879
 30
0.0
  0
VERTEX
  5
BA7
  8
LAYER_1
 10
-178.2099041151677
 20
103.1122800679287
 30
0.0
  0
VERTEX
  5
BA8
  8
LAYER_1
 10
-178.7036210745811
 20
102.7422254976695
 30
0.0
  0
VERTEX
  5
BA9
  8
LAYER_1
 10
-179.2275541833805
 20
102.3721709274103
 30
0.0
  0
VERTEX
  5
BAA
  8
LAYER_1
 10
-179.7817034415661
 20
102.0021163571511
 30
0.0
  0
VERTEX
  5
BAB
  8
LAYER_1
 10
-180.3660688491377
 20
101.6320617868919
 30
0.0
  0
VERTEX
  5
BAC
  8
LAYER_1
 10
-180.9806504060954
 20
101.2620072166327
 30
0.0
  0
VERTEX
  5
BAD
  8
LAYER_1
 10
-181.602319701798
 20
100.9035168516941
 30
0.0
  0
VERTEX
  5
BAE
  8
LAYER_1
 10
-182.2079483256043
 20
100.5681548973967
 30
0.0
  0
VERTEX
  5
BAF
  8
LAYER_1
 10
-182.7975362775142
 20
100.2559213537405
 30
0.0
  0
VERTEX
  5
BB0
  8
LAYER_1
 10
-183.3710835575279
 20
99.96681622072545
 30
0.0
  0
VERTEX
  5
BB1
  8
LAYER_1
 10
-183.9285901656452
 20
99.70083949835166
 30
0.0
  0
VERTEX
  5
BB2
  8
LAYER_1
 10
-184.4700561018662
 20
99.45799118661904
 30
0.0
  0
VERTEX
  5
BB3
  8
LAYER_1
 10
-184.9954813661909
 20
99.23827128552765
 30
0.0
  0
VERTEX
  5
BB4
  8
LAYER_1
 10
-185.5048659586193
 20
99.04167979507744
 30
0.0
  0
VERTEX
  5
BB5
  8
LAYER_1
 10
-185.5048659586193
 20
103.1958407773421
 30
0.0
  0
VERTEX
  5
BB6
  8
LAYER_1
 10
-185.0577788593696
 20
103.4105246535358
 30
0.0
  0
VERTEX
  5
BB7
  8
LAYER_1
 10
-184.6177794988648
 20
103.6308041129492
 30
0.0
  0
VERTEX
  5
BB8
  8
LAYER_1
 10
-184.1848678771049
 20
103.8566791555822
 30
0.0
  0
VERTEX
  5
BB9
  8
LAYER_1
 10
-183.7590439940899
 20
104.0881497814349
 30
0.0
  0
VERTEX
  5
BBA
  8
LAYER_1
 10
-183.3403078498198
 20
104.3252159905072
 30
0.0
  0
VERTEX
  5
BBB
  8
LAYER_1
 10
-182.9286594442946
 20
104.5678777827991
 30
0.0
  0
VERTEX
  5
BBC
  8
LAYER_1
 10
-182.5240987775142
 20
104.8161351583107
 30
0.0
  0
VERTEX
  5
BBD
  8
LAYER_1
 10
-182.1266258494787
 20
105.069988117042
 30
0.0
  0
VERTEX
  5
BBE
  8
LAYER_1
 10
-181.7362406601881
 20
105.3294366589928
 30
0.0
  0
VERTEX
  5
BBF
  8
LAYER_1
 10
-181.3529432096424
 20
105.5944807841634
 30
0.0
  0
VERTEX
  5
BC0
  8
LAYER_1
 10
-180.9767334978416
 20
105.8651204925535
 30
0.0
  0
VERTEX
  5
BC1
  8
LAYER_1
 10
-180.6076115247857
 20
106.1413557841634
 30
0.0
  0
VERTEX
  5
BC2
  8
LAYER_1
 10
-180.2455772904746
 20
106.4231866589928
 30
0.0
  0
VERTEX
  5
BC3
  8
LAYER_1
 10
-179.8906307949085
 20
106.7106131170419
 30
0.0
  0
VERTEX
  5
BC4
  8
LAYER_1
 10
-179.5427720380872
 20
107.0036351583107
 30
0.0
  0
VERTEX
  5
BC5
  8
LAYER_1
 10
-179.2020010200108
 20
107.3022527827991
 30
0.0
  0
VERTEX
  5
BC6
  8
LAYER_1
 10
-178.8709290128485
 20
107.6031086405754
 30
0.0
  0
VERTEX
  5
BC7
  8
LAYER_1
 10
-178.5521672887693
 20
107.9028453817077
 30
0.0
  0
VERTEX
  5
BC8
  8
LAYER_1
 10
-178.2457158477734
 20
108.2014630061961
 30
0.0
  0
VERTEX
  5
BC9
  8
LAYER_1
 10
-177.9515746898607
 20
108.4989615140406
 30
0.0
  0
VERTEX
  5
BCA
  8
LAYER_1
 10
-177.6697438150313
 20
108.7953409052411
 30
0.0
  0
VERTEX
  5
BCB
  8
LAYER_1
 10
-177.400223223285
 20
109.0906011797977
 30
0.0
  0
VERTEX
  5
BCC
  8
LAYER_1
 10
-177.143012914622
 20
109.3847423377104
 30
0.0
  0
VERTEX
  5
BCD
  8
LAYER_1
 10
-176.8981128890422
 20
109.6777643789792
 30
0.0
  0
VERTEX
  5
BCE
  8
LAYER_1
 10
-176.6655231465456
 20
109.969667303604
 30
0.0
  0
VERTEX
  5
BCF
  8
LAYER_1
 10
-176.4452436871322
 20
110.2604511115849
 30
0.0
  0
VERTEX
  5
BD0
  8
LAYER_1
 10
-176.2372745108021
 20
110.5501158029219
 30
0.0
  0
VERTEX
  5
BD1
  8
LAYER_1
 10
-176.0416156175551
 20
110.8386613776149
 30
0.0
  0
VERTEX
  5
BD2
  8
LAYER_1
 10
-175.8582670073914
 20
111.126087835664
 30
0.0
  0
VERTEX
  5
BD3
  8
LAYER_1
 10
-175.6872286803109
 20
111.4123951770692
 30
0.0
  0
VERTEX
  5
BD4
  8
LAYER_1
 10
-175.5285006363137
 20
111.6975834018305
 30
0.0
  0
VERTEX
  5
BD5
  8
LAYER_1
 10
-175.3820828753996
 20
111.9816525099478
 30
0.0
  0
VERTEX
  5
BD6
  8
LAYER_1
 10
-172.6126422205565
 20
111.9816525099478
 30
0.0
  0
SEQEND
  5
EA7
  8
LAYER_1
  0
POLYLINE
  5
82
  8
LAYER_1
 66
     1
 10
0.0
 20
0.0
 30
0.0
 70
     1
  0
VERTEX
  5
BD7
  8
LAYER_1
 10
-161.6065030663956
 20
94.09966069548665
 30
0.0
  0
VERTEX
  5
BD8
  8
LAYER_1
 10
-161.601513671358
 20
94.86611570699756
 30
0.0
  0
VERTEX
  5
BD9
  8
LAYER_1
 10
-161.5865454862455
 20
95.613638995282
 30
0.0
  0
VERTEX
  5
BDA
  8
LAYER_1
 10
-161.5615985110579
 20
96.34223056033997
 30
0.0
  0
VERTEX
  5
BDB
  8
LAYER_1
 10
-161.5266727457953
 20
97.0518904021715
 30
0.0
  0
VERTEX
  5
BDC
  8
LAYER_1
 10
-161.4817681904576
 20
97.74261852077655
 30
0.0
  0
VERTEX
  5
BDD
  8
LAYER_1
 10
-161.426884845045
 20
98.41441491615512
 30
0.0
  0
VERTEX
  5
BDE
  8
LAYER_1
 10
-161.3620227095572
 20
99.06727958830723
 30
0.0
  0
VERTEX
  5
BDF
  8
LAYER_1
 10
-161.2871817839945
 20
99.70121253723289
 30
0.0
  0
VERTEX
  5
BE0
  8
LAYER_1
 10
-161.2023620683567
 20
100.3162137629321
 30
0.0
  0
VERTEX
  5
BE1
  8
LAYER_1
 10
-161.1075635626439
 20
100.9122832654048
 30
0.0
  0
VERTEX
  5
BE2
  8
LAYER_1
 10
-161.002786266856
 20
101.489421044651
 30
0.0
  0
VERTEX
  5
BE3
  8
LAYER_1
 10
-160.8880301809931
 20
102.0476271006708
 30
0.0
  0
VERTEX
  5
BE4
  8
LAYER_1
 10
-160.7632953050552
 20
102.5869014334641
 30
0.0
  0
VERTEX
  5
BE5
  8
LAYER_1
 10
-160.6285816390422
 20
103.107244043031
 30
0.0
  0
VERTEX
  5
BE6
  8
LAYER_1
 10
-160.4838891829542
 20
103.6086549293714
 30
0.0
  0
VERTEX
  5
BE7
  8
LAYER_1
 10
-160.3292179367912
 20
104.0911340924853
 30
0.0
  0
VERTEX
  5
BE8
  8
LAYER_1
 10
-160.1647077901336
 20
104.5573860642622
 30
0.0
  0
VERTEX
  5
BE9
  8
LAYER_1
 10
-159.990498632562
 20
105.0101153765917
 30
0.0
  0
VERTEX
  5
BEA
  8
LAYER_1
 10
-159.8065904640763
 20
105.4493220294737
 30
0.0
  0
VERTEX
  5
BEB
  8
LAYER_1
 10
-159.6129832846765
 20
105.8750060229082
 30
0.0
  0
VERTEX
  5
BEC
  8
LAYER_1
 10
-159.4096770943627
 20
106.2871673568952
 30
0.0
  0
VERTEX
  5
BED
  8
LAYER_1
 10
-159.1966718931349
 20
106.6858060314348
 30
0.0
  0
VERTEX
  5
BEE
  8
LAYER_1
 10
-158.973967680993
 20
107.0709220465269
 30
0.0
  0
VERTEX
  5
BEF
  8
LAYER_1
 10
-158.7415644579371
 20
107.4425154021715
 30
0.0
  0
VERTEX
  5
BF0
  8
LAYER_1
 10
-158.4994622239671
 20
107.8005860983686
 30
0.0
  0
VERTEX
  5
BF1
  8
LAYER_1
 10
-158.2476609790831
 20
108.1451341351183
 30
0.0
  0
VERTEX
  5
BF2
  8
LAYER_1
 10
-157.986160723285
 20
108.4761595124205
 30
0.0
  0
VERTEX
  5
BF3
  8
LAYER_1
 10
-157.7149614565729
 20
108.7936622302752
 30
0.0
  0
VERTEX
  5
BF4
  8
LAYER_1
 10
-157.4340631789467
 20
109.0976422886824
 30
0.0
  0
VERTEX
  5
BF5
  8
LAYER_1
 10
-157.1434658904064
 20
109.3880996876422
 30
0.0
  0
VERTEX
  5
BF6
  8
LAYER_1
 10
-156.8431695909521
 20
109.6650344271544
 30
0.0
  0
VERTEX
  5
BF7
  8
LAYER_1
 10
-156.5331742805838
 20
109.9284465072192
 30
0.0
  0
VERTEX
  5
BF8
  8
LAYER_1
 10
-156.2132468100006
 20
110.1770769216121
 30
0.0
  0
VERTEX
  5
BF9
  8
LAYER_1
 10
-155.8831540299017
 20
110.4096666641087
 30
0.0
  0
VERTEX
  5
BFA
  8
LAYER_1
 10
-155.5428959402871
 20
110.626215734709
 30
0.0
  0
VERTEX
  5
BFB
  8
LAYER_1
 10
-155.1924725411568
 20
110.826724133413
 30
0.0
  0
VERTEX
  5
BFC
  8
LAYER_1
 10
-154.8318838325108
 20
111.0111918602206
 30
0.0
  0
VERTEX
  5
BFD
  8
LAYER_1
 10
-154.4611298143491
 20
111.1796189151319
 30
0.0
  0
VERTEX
  5
BFE
  8
LAYER_1
 10
-154.0802104866718
 20
111.3320052981469
 30
0.0
  0
VERTEX
  5
BFF
  8
LAYER_1
 10
-153.6891258494787
 20
111.4683510092656
 30
0.0
  0
VERTEX
  5
C00
  8
LAYER_1
 10
-153.28787590277
 20
111.588656048488
 30
0.0
  0
VERTEX
  5
C01
  8
LAYER_1
 10
-152.8764606465456
 20
111.692920415814
 30
0.0
  0
VERTEX
  5
C02
  8
LAYER_1
 10
-152.4548800808055
 20
111.7811441112438
 30
0.0
  0
VERTEX
  5
C03
  8
LAYER_1
 10
-152.0231342055497
 20
111.8533271347772
 30
0.0
  0
VERTEX
  5
C04
  8
LAYER_1
 10
-151.5812230207782
 20
111.9094694864143
 30
0.0
  0
VERTEX
  5
C05
  8
LAYER_1
 10
-151.129146526491
 20
111.9495711661551
 30
0.0
  0
VERTEX
  5
C06
  8
LAYER_1
 10
-150.6669047226881
 20
111.9736321739996
 30
0.0
  0
VERTEX
  5
C07
  8
LAYER_1
 10
-150.1944976093696
 20
111.9816525099477
 30
0.0
  0
VERTEX
  5
C08
  8
LAYER_1
 10
-149.8450534373027
 20
111.9772226732322
 30
0.0
  0
VERTEX
  5
C09
  8
LAYER_1
 10
-149.5010183290149
 20
111.9639331630855
 30
0.0
  0
VERTEX
  5
C0A
  8
LAYER_1
 10
-149.162392284506
 20
111.9417839795077
 30
0.0
  0
VERTEX
  5
C0B
  8
LAYER_1
 10
-148.8291753037761
 20
111.9107751224989
 30
0.0
  0
VERTEX
  5
C0C
  8
LAYER_1
 10
-148.5013673868252
 20
111.8709065920589
 30
0.0
  0
VERTEX
  5
C0D
  8
LAYER_1
 10
-148.1789685336533
 20
111.8221783881878
 30
0.0
  0
VERTEX
  5
C0E
  8
LAYER_1
 10
-147.8619787442605
 20
111.7645905108856
 30
0.0
  0
VERTEX
  5
C0F
  8
LAYER_1
 10
-147.5503980186465
 20
111.6981429601524
 30
0.0
  0
VERTEX
  5
C10
  8
LAYER_1
 10
-147.2442263568116
 20
111.622835735988
 30
0.0
  0
VERTEX
  5
C11
  8
LAYER_1
 10
-146.9434637587557
 20
111.5386688383925
 30
0.0
  0
VERTEX
  5
C12
  8
LAYER_1
 10
-146.6481102244787
 20
111.4456422673659
 30
0.0
  0
VERTEX
  5
C13
  8
LAYER_1
 10
-146.3581657539808
 20
111.3437560229081
 30
0.0
  0
VERTEX
  5
C14
  8
LAYER_1
 10
-146.0736303472618
 20
111.2330101050193
 30
0.0
  0
VERTEX
  5
C15
  8
LAYER_1
 10
-145.7945040043218
 20
111.1134045136994
 30
0.0
  0
VERTEX
  5
C16
  8
LAYER_1
 10
-145.5207867251609
 20
110.9849392489484
 30
0.0
  0
VERTEX
  5
C17
  8
LAYER_1
 10
-145.2524785097789
 20
110.8476143107663
 30
0.0
  0
VERTEX
  5
C18
  8
LAYER_1
 10
-144.9897658776165
 20
110.7019426276148
 30
0.0
  0
VERTEX
  5
C19
  8
LAYER_1
 10
-144.7328353481145
 20
110.5484371279559
 30
0.0
  0
VERTEX
  5
C1A
  8
LAYER_1
 10
-144.4816869212727
 20
110.3870978117894
 30
0.0
  0
VERTEX
  5
C1B
  8
LAYER_1
 10
-144.2363205970913
 20
110.2179246791155
 30
0.0
  0
VERTEX
  5
C1C
  8
LAYER_1
 10
-143.9967363755702
 20
110.0409177299341
 30
0.0
  0
VERTEX
  5
C1D
  8
LAYER_1
 10
-143.7629342567093
 20
109.8560769642451
 30
0.0
  0
VERTEX
  5
C1E
  8
LAYER_1
 10
-143.5349142405087
 20
109.6634023820486
 30
0.0
  0
VERTEX
  5
C1F
  8
LAYER_1
 10
-143.3126763269685
 20
109.4628939833447
 30
0.0
  0
VERTEX
  5
C20
  8
LAYER_1
 10
-143.0962205160886
 20
109.2545517681332
 30
0.0
  0
VERTEX
  5
C21
  8
LAYER_1
 10
-142.8855468078689
 20
109.0383757364143
 30
0.0
  0
VERTEX
  5
C22
  8
LAYER_1
 10
-142.6806552023096
 20
108.8143658881878
 30
0.0
  0
VERTEX
  5
C23
  8
LAYER_1
 10
-142.4815456994106
 20
108.5825222234538
 30
0.0
  0
VERTEX
  5
C24
  8
LAYER_1
 10
-142.2882182991718
 20
108.3428447422123
 30
0.0
  0
VERTEX
  5
C25
  8
LAYER_1
 10
-142.1006730015933
 20
108.0953334444634
 30
0.0
  0
VERTEX
  5
C26
  8
LAYER_1
 10
-141.9189098066752
 20
107.8399883302069
 30
0.0
  0
VERTEX
  5
C27
  8
LAYER_1
 10
-141.7429287144174
 20
107.5768093994429
 30
0.0
  0
VERTEX
  5
C28
  8
LAYER_1
 10
-141.5721701664978
 20
107.3060764313324
 30
0.0
  0
VERTEX
  5
C29
  8
LAYER_1
 10
-141.4060746045947
 20
107.0280692050364
 30
0.0
  0
VERTEX
  5
C2A
  8
LAYER_1
 10
-141.2446420287079
 20
106.7427877205548
 30
0.0
  0
VERTEX
  5
C2B
  8
LAYER_1
 10
-141.0878724388375
 20
106.4502319778877
 30
0.0
  0
VERTEX
  5
C2C
  8
LAYER_1
 10
-140.7883222171459
 20
105.8432977179968
 30
0.0
  0
VERTEX
  5
C2D
  8
LAYER_1
 10
-140.5074239395197
 20
105.2072664253638
 30
0.0
  0
VERTEX
  5
C2E
  8
LAYER_1
 10
-140.245177605959
 20
104.5421380999886
 30
0.0
  0
VERTEX
  5
C2F
  8
LAYER_1
 10
-140.0015832164637
 20
103.8479127418713
 30
0.0
  0
VERTEX
  5
C30
  8
LAYER_1
 10
-139.776640771034
 20
103.1245903510118
 30
0.0
  0
VERTEX
  5
C31
  8
LAYER_1
 10
-139.5703502696697
 20
102.3721709274102
 30
0.0
  0
VERTEX
  5
C32
  8
LAYER_1
 10
-139.4749455757748
 20
101.9803402124545
 30
0.0
  0
VERTEX
  5
C33
  8
LAYER_1
 10
-139.3856960234215
 20
101.5718160075602
 30
0.0
  0
VERTEX
  5
C34
  8
LAYER_1
 10
-139.3026016126097
 20
101.1465983127274
 30
0.0
  0
VERTEX
  5
C35
  8
LAYER_1
 10
-139.2256623433396
 20
100.7046871279559
 30
0.0
  0
VERTEX
  5
C36
  8
LAYER_1
 10
-139.1548782156111
 20
100.2460824532458
 30
0.0
  0
VERTEX
  5
C37
  8
LAYER_1
 10
-139.0902492294242
 20
99.7707842885971
 30
0.0
  0
VERTEX
  5
C38
  8
LAYER_1
 10
-139.0317753847789
 20
99.27879263400978
 30
0.0
  0
VERTEX
  5
C39
  8
LAYER_1
 10
-138.9794566816752
 20
98.77010748948385
 30
0.0
  0
VERTEX
  5
C3A
  8
LAYER_1
 10
-138.8932847000927
 20
97.70265673061618
 30
0.0
  0
VERTEX
  5
C3B
  8
LAYER_1
 10
-138.8317332846766
 20
96.56843201199408
 30
0.0
  0
VERTEX
  5
C3C
  8
LAYER_1
 10
-138.7948024354269
 20
95.36743333361754
 30
0.0
  0
VERTEX
  5
C3D
  8
LAYER_1
 10
-138.7824921523437
 20
94.09966069548656
 30
0.0
  0
VERTEX
  5
C3E
  8
LAYER_1
 10
-138.7874349175211
 20
93.33898778663594
 30
0.0
  0
VERTEX
  5
C3F
  8
LAYER_1
 10
-138.8022632130532
 20
92.5968735621305
 30
0.0
  0
VERTEX
  5
C40
  8
LAYER_1
 10
-138.8269770389399
 20
91.87331802197019
 30
0.0
  0
VERTEX
  5
C41
  8
LAYER_1
 10
-138.8615763951814
 20
91.16832116615505
 30
0.0
  0
VERTEX
  5
C42
  8
LAYER_1
 10
-138.9060612817776
 20
90.48188299468507
 30
0.0
  0
VERTEX
  5
C43
  8
LAYER_1
 10
-138.9604316987285
 20
89.81400350756024
 30
0.0
  0
VERTEX
  5
C44
  8
LAYER_1
 10
-139.0246876460341
 20
89.16468270478057
 30
0.0
  0
VERTEX
  5
C45
  8
LAYER_1
 10
-139.0988291236943
 20
88.53392058634606
 30
0.0
  0
VERTEX
  5
C46
  8
LAYER_1
 10
-139.1828561317093
 20
87.92171715225669
 30
0.0
  0
VERTEX
  5
C47
  8
LAYER_1
 10
-139.2767686700791
 20
87.3280724025125
 30
0.0
  0
VERTEX
  5
C48
  8
LAYER_1
 10
-139.3805667388035
 20
86.75298633711344
 30
0.0
  0
VERTEX
  5
C49
  8
LAYER_1
 10
-139.4942503378826
 20
86.19645895605956
 30
0.0
  0
VERTEX
  5
C4A
  8
LAYER_1
 10
-139.6178194673165
 20
85.65849025935083
 30
0.0
  0
VERTEX
  5
C4B
  8
LAYER_1
 10
-139.751274127105
 20
85.13908024698728
 30
0.0
  0
VERTEX
  5
C4C
  8
LAYER_1
 10
-139.8946143172483
 20
84.63822891896885
 30
0.0
  0
VERTEX
  5
C4D
  8
LAYER_1
 10
-140.0478400377462
 20
84.15593627529559
 30
0.0
  0
VERTEX
  5
C4E
  8
LAYER_1
 10
-140.2109046587387
 20
83.68963767365848
 30
0.0
  0
VERTEX
  5
C4F
  8
LAYER_1
 10
-140.3837615503656
 20
83.23676847174852
 30
0.0
  0
VERTEX
  5
C50
  8
LAYER_1
 10
-140.5664107126269
 20
82.79732866956573
 30
0.0
  0
VERTEX
  5
C51
  8
LAYER_1
 10
-140.7588521455225
 20
82.37131826711007
 30
0.0
  0
VERTEX
  5
C52
  8
LAYER_1
 10
-140.9610858490525
 20
81.95873726438155
 30
0.0
  0
VERTEX
  5
C53
  8
LAYER_1
 10
-141.1731118232169
 20
81.55958566138018
 30
0.0
  0
VERTEX
  5
C54
  8
LAYER_1
 10
-141.3949300680156
 20
81.17386345810597
 30
0.0
  0
VERTEX
  5
C55
  8
LAYER_1
 10
-141.6265405834488
 20
80.8015706545589
 30
0.0
  0
VERTEX
  5
C56
  8
LAYER_1
 10
-141.8679433695164
 20
80.44270725073898
 30
0.0
  0
VERTEX
  5
C57
  8
LAYER_1
 10
-142.1191384262182
 20
80.09727324664621
 30
0.0
  0
VERTEX
  5
C58
  8
LAYER_1
 10
-142.3801257535545
 20
79.7652686422806
 30
0.0
  0
VERTEX
  5
C59
  8
LAYER_1
 10
-142.6509053515252
 20
79.44669343764212
 30
0.0
  0
VERTEX
  5
C5A
  8
LAYER_1
 10
-142.9314772201303
 20
79.1415476327308
 30
0.0
  0
VERTEX
  5
C5B
  8
LAYER_1
 10
-143.2218413593697
 20
78.84983122754663
 30
0.0
  0
VERTEX
  5
C5C
  8
LAYER_1
 10
-143.5219977692435
 20
78.57154422208961
 30
0.0
  0
VERTEX
  5
C5D
  8
LAYER_1
 10
-143.8319464497517
 20
78.30668661635973
 30
0.0
  0
VERTEX
  5
C5E
  8
LAYER_1
 10
-144.1519671800552
 20
78.05661067630174
 30
0.0
  0
VERTEX
  5
C5F
  8
LAYER_1
 10
-144.4823397393151
 20
77.8226686678604
 30
0.0
  0
VERTEX
  5
C60
  8
LAYER_1
 10
-144.8230641275314
 20
77.6048605910357
 30
0.0
  0
VERTEX
  5
C61
  8
LAYER_1
 10
-145.1741403447039
 20
77.40318644582766
 30
0.0
  0
VERTEX
  5
C62
  8
LAYER_1
 10
-145.5355683908329
 20
77.21764623223626
 30
0.0
  0
VERTEX
  5
C63
  8
LAYER_1
 10
-145.9073482659181
 20
77.0482399502615
 30
0.0
  0
VERTEX
  5
C64
  8
LAYER_1
 10
-146.2894799699597
 20
76.8949675999034
 30
0.0
  0
VERTEX
  5
C65
  8
LAYER_1
 10
-146.6819635029577
 20
76.75782918116191
 30
0.0
  0
VERTEX
  5
C66
  8
LAYER_1
 10
-147.084798864912
 20
76.63682469403707
 30
0.0
  0
VERTEX
  5
C67
  8
LAYER_1
 10
-147.4979860558226
 20
76.53195413852889
 30
0.0
  0
VERTEX
  5
C68
  8
LAYER_1
 10
-147.9215250756896
 20
76.44321751463735
 30
0.0
  0
VERTEX
  5
C69
  8
LAYER_1
 10
-148.3554159245129
 20
76.37061482236246
 30
0.0
  0
VERTEX
  5
C6A
  8
LAYER_1
 10
-148.7996586022926
 20
76.31414606170421
 30
0.0
  0
VERTEX
  5
C6B
  8
LAYER_1
 10
-149.2542531090286
 20
76.2738112326626
 30
0.0
  0
VERTEX
  5
C6C
  8
LAYER_1
 10
-149.719199444721
 20
76.24961033523763
 30
0.0
  0
VERTEX
  5
C6D
  8
LAYER_1
 10
-150.1944976093697
 20
76.24154336942932
 30
0.0
  0
VERTEX
  5
C6E
  8
LAYER_1
 10
-150.8186849175211
 20
76.25571884691911
 30
0.0
  0
VERTEX
  5
C6F
  8
LAYER_1
 10
-151.425898956573
 20
76.29824527938841
 30
0.0
  0
VERTEX
  5
C70
  8
LAYER_1
 10
-151.7231410001866
 20
76.33014010374039
 30
0.0
  0
VERTEX
  5
C71
  8
LAYER_1
 10
-152.0161397265252
 20
76.36912266683724
 30
0.0
  0
VERTEX
  5
C72
  8
LAYER_1
 10
-152.304895135589
 20
76.415192968679
 30
0.0
  0
VERTEX
  5
C73
  8
LAYER_1
 10
-152.5894072273779
 20
76.46835100926562
 30
0.0
  0
VERTEX
  5
C74
  8
LAYER_1
 10
-152.8696760018919
 20
76.52859678859714
 30
0.0
  0
VERTEX
  5
C75
  8
LAYER_1
 10
-153.1457014591309
 20
76.59593030667354
 30
0.0
  0
VERTEX
  5
C76
  8
LAYER_1
 10
-153.4174835990951
 20
76.67035156349482
 30
0.0
  0
VERTEX
  5
C77
  8
LAYER_1
 10
-153.6850224217844
 20
76.75186055906099
 30
0.0
  0
VERTEX
  5
C78
  8
LAYER_1
 10
-153.9483179271988
 20
76.84045729337205
 30
0.0
  0
VERTEX
  5
C79
  8
LAYER_1
 10
-154.2073701153383
 20
76.93614176642797
 30
0.0
  0
VERTEX
  5
C7A
  8
LAYER_1
 10
-154.4621789862029
 20
77.0389139782288
 30
0.0
  0
VERTEX
  5
C7B
  8
LAYER_1
 10
-154.7127445397926
 20
77.14877392877449
 30
0.0
  0
VERTEX
  5
C7C
  8
LAYER_1
 10
-154.9590667761074
 20
77.26572161806507
 30
0.0
  0
VERTEX
  5
C7D
  8
LAYER_1
 10
-155.2011456951473
 20
77.38975704610056
 30
0.0
  0
VERTEX
  5
C7E
  8
LAYER_1
 10
-155.4389812969123
 20
77.52088021288091
 30
0.0
  0
VERTEX
  5
C7F
  8
LAYER_1
 10
-155.6725735814024
 20
77.65909111840614
 30
0.0
  0
VERTEX
  5
C80
  8
LAYER_1
 10
-155.9019225486177
 20
77.80438976267627
 30
0.0
  0
VERTEX
  5
C81
  8
LAYER_1
 10
-156.127028198558
 20
77.95677614569126
 30
0.0
  0
VERTEX
  5
C82
  8
LAYER_1
 10
-156.3478905312234
 20
78.11625026745116
 30
0.0
  0
VERTEX
  5
C83
  8
LAYER_1
 10
-156.5645095466139
 20
78.28281212795594
 30
0.0
  0
VERTEX
  5
C84
  8
LAYER_1
 10
-156.7768852447295
 20
78.4564617272056
 30
0.0
  0
VERTEX
  5
C85
  8
LAYER_1
 10
-156.9850176255702
 20
78.63719906520015
 30
0.0
  0
VERTEX
  5
C86
  8
LAYER_1
 10
-157.1889066891361
 20
78.8250241419396
 30
0.0
  0
VERTEX
  5
C87
  8
LAYER_1
 10
-157.388552435427
 20
79.0199369574239
 30
0.0
  0
VERTEX
  5
C88
  8
LAYER_1
 10
-157.583954864443
 20
79.2219375116531
 30
0.0
  0
VERTEX
  5
C89
  8
LAYER_1
 10
-157.7751139761842
 20
79.43102580462717
 30
0.0
  0
VERTEX
  5
C8A
  8
LAYER_1
 10
-157.9620297706504
 20
79.64720183634614
 30
0.0
  0
VERTEX
  5
C8B
  8
LAYER_1
 10
-158.1447022478417
 20
79.87046560680997
 30
0.0
  0
VERTEX
  5
C8C
  8
LAYER_1
 10
-158.3576841341395
 20
80.14889250184748
 30
0.0
  0
VERTEX
  5
C8D
  8
LAYER_1
 10
-158.5639046907135
 20
80.43804426472266
 30
0.0
  0
VERTEX
  5
C8E
  8
LAYER_1
 10
-158.7633639175638
 20
80.73792089543548
 30
0.0
  0
VERTEX
  5
C8F
  8
LAYER_1
 10
-158.9560618146903
 20
81.04852239398596
 30
0.0
  0
VERTEX
  5
C90
  8
LAYER_1
 10
-159.1419983820931
 20
81.3698487603741
 30
0.0
  0
VERTEX
  5
C91
  8
LAYER_1
 10
-159.3211736197722
 20
81.70189999459987
 30
0.0
  0
VERTEX
  5
C92
  8
LAYER_1
 10
-159.4935875277275
 20
82.04467609666332
 30
0.0
  0
VERTEX
  5
C93
  8
LAYER_1
 10
-159.659240105959
 20
82.39817706656441
 30
0.0
  0
VERTEX
  5
C94
  8
LAYER_1
 10
-159.8181313544669
 20
82.76240290430316
 30
0.0
  0
VERTEX
  5
C95
  8
LAYER_1
 10
-159.970261273251
 20
83.13735360987955
 30
0.0
  0
VERTEX
  5
C96
  8
LAYER_1
 10
-160.1156298623114
 20
83.5230291832936
 30
0.0
  0
VERTEX
  5
C97
  8
LAYER_1
 10
-160.254237121648
 20
83.91942962454532
 30
0.0
  0
VERTEX
  5
C98
  8
LAYER_1
 10
-160.3860830512609
 20
84.32655493363467
 30
0.0
  0
VERTEX
  5
C99
  8
LAYER_1
 10
-160.51116765115
 20
84.74440511056169
 30
0.0
  0
VERTEX
  5
C9A
  8
LAYER_1
 10
-160.6294909213154
 20
85.17298015532636
 30
0.0
  0
VERTEX
  5
C9B
  8
LAYER_1
 10
-160.7410528617571
 20
85.61228006792867
 30
0.0
  0
VERTEX
  5
C9C
  8
LAYER_1
 10
-160.8458534724751
 20
86.06230484836864
 30
0.0
  0
VERTEX
  5
C9D
  8
LAYER_1
 10
-160.9438927534692
 20
86.52305449664627
 30
0.0
  0
VERTEX
  5
C9E
  8
LAYER_1
 10
-161.0351707047398
 20
86.99452901276155
 30
0.0
  0
VERTEX
  5
C9F
  8
LAYER_1
 10
-161.1196873262865
 20
87.47672839671448
 30
0.0
  0
VERTEX
  5
CA0
  8
LAYER_1
 10
-161.1974426181094
 20
87.96965264850508
 30
0.0
  0
VERTEX
  5
CA1
  8
LAYER_1
 10
-161.2684365802087
 20
88.47330176813331
 30
0.0
  0
VERTEX
  5
CA2
  8
LAYER_1
 10
-161.3326692125842
 20
88.9876757555992
 30
0.0
  0
VERTEX
  5
CA3
  8
LAYER_1
 10
-161.390140515236
 20
89.51277461090275
 30
0.0
  0
VERTEX
  5
CA4
  8
LAYER_1
 10
-161.440850488164
 20
90.04859833404396
 30
0.0
  0
VERTEX
  5
CA5
  8
LAYER_1
 10
-161.4847991313683
 20
90.5951469250228
 30
0.0
  0
VERTEX
  5
CA6
  8
LAYER_1
 10
-161.5524124286057
 20
91.72041871049348
 30
0.0
  0
VERTEX
  5
CA7
  8
LAYER_1
 10
-161.5929804069481
 20
92.88858996731476
 30
0.0
  0
SEQEND
  5
EA8
  8
LAYER_1
  0
POLYLINE
  5
83
  8
LAYER_1
 66
     1
 10
0.0
 20
0.0
 30
0.0
 70
     1
  0
VERTEX
  5
CA8
  8
LAYER_1
 10
-157.1897227116889
 20
94.09966069548663
 30
0.0
  0
VERTEX
  5
CA9
  8
LAYER_1
 10
-157.1818422653212
 20
93.04484662872333
 30
0.0
  0
VERTEX
  5
CAA
  8
LAYER_1
 10
-157.1582009262182
 20
92.03507700687817
 30
0.0
  0
VERTEX
  5
CAB
  8
LAYER_1
 10
-157.1187986943799
 20
91.07035182995116
 30
0.0
  0
VERTEX
  5
CAC
  8
LAYER_1
 10
-157.0636355698062
 20
90.1506710979423
 30
0.0
  0
VERTEX
  5
CAD
  8
LAYER_1
 10
-156.9927115524972
 20
89.27603481085157
 30
0.0
  0
VERTEX
  5
CAE
  8
LAYER_1
 10
-156.9060266424529
 20
88.446442968679
 30
0.0
  0
VERTEX
  5
CAF
  8
LAYER_1
 10
-156.8035808396733
 20
87.66189557142457
 30
0.0
  0
VERTEX
  5
CB0
  8
LAYER_1
 10
-156.6853741441582
 20
86.92239261908827
 30
0.0
  0
VERTEX
  5
CB1
  8
LAYER_1
 10
-156.5514065559079
 20
86.22793411167012
 30
0.0
  0
VERTEX
  5
CB2
  8
LAYER_1
 10
-156.4016780749222
 20
85.57852004917012
 30
0.0
  0
VERTEX
  5
CB3
  8
LAYER_1
 10
-156.2361887012012
 20
84.97415043158827
 30
0.0
  0
VERTEX
  5
CB4
  8
LAYER_1
 10
-156.0549384347449
 20
84.41482525892457
 30
0.0
  0
VERTEX
  5
CB5
  8
LAYER_1
 10
-155.9584029667409
 20
84.15205433943702
 30
0.0
  0
VERTEX
  5
CB6
  8
LAYER_1
 10
-155.8579272755532
 20
83.900544531179
 30
0.0
  0
VERTEX
  5
CB7
  8
LAYER_1
 10
-155.7535113611816
 20
83.66029583415052
 30
0.0
  0
VERTEX
  5
CB8
  8
LAYER_1
 10
-155.6451552236262
 20
83.43130824835157
 30
0.0
  0
VERTEX
  5
CB9
  8
LAYER_1
 10
-155.5328588628869
 20
83.21358177378217
 30
0.0
  0
VERTEX
  5
CBA
  8
LAYER_1
 10
-155.4166222789638
 20
83.0071164104423
 30
0.0
  0
VERTEX
  5
CBB
  8
LAYER_1
 10
-155.2964454718569
 20
82.81191215833196
 30
0.0
  0
VERTEX
  5
CBC
  8
LAYER_1
 10
-155.1723284415662
 20
82.62796901745116
 30
0.0
  0
VERTEX
  5
CBD
  8
LAYER_1
 10
-154.9164703988479
 20
82.28248838349823
 30
0.0
  0
VERTEX
  5
CBE
  8
LAYER_1
 10
-154.6532448382237
 20
81.95929682270355
 30
0.0
  0
VERTEX
  5
CBF
  8
LAYER_1
 10
-154.3826517596937
 20
81.65839433506713
 30
0.0
  0
VERTEX
  5
CC0
  8
LAYER_1
 10
-154.1046911632578
 20
81.37978092058896
 30
0.0
  0
VERTEX
  5
CC1
  8
LAYER_1
 10
-153.8193630489161
 20
81.12345657926903
 30
0.0
  0
VERTEX
  5
CC2
  8
LAYER_1
 10
-153.5266674166685
 20
80.88942131110736
 30
0.0
  0
VERTEX
  5
CC3
  8
LAYER_1
 10
-153.226604266515
 20
80.67767511610396
 30
0.0
  0
VERTEX
  5
CC4
  8
LAYER_1
 10
-152.9191735984556
 20
80.4882179942588
 30
0.0
  0
VERTEX
  5
CC5
  8
LAYER_1
 10
-152.6043754124904
 20
80.3210499455719
 30
0.0
  0
VERTEX
  5
CC6
  8
LAYER_1
 10
-152.2822097086193
 20
80.17617097004324
 30
0.0
  0
VERTEX
  5
CC7
  8
LAYER_1
 10
-151.9526764868424
 20
80.05358106767285
 30
0.0
  0
VERTEX
  5
CC8
  8
LAYER_1
 10
-151.6157757471596
 20
79.9532802384607
 30
0.0
  0
VERTEX
  5
CC9
  8
LAYER_1
 10
-151.2715074895709
 20
79.87526848240681
 30
0.0
  0
VERTEX
  5
CCA
  8
LAYER_1
 10
-150.9198717140764
 20
79.81954579951116
 30
0.0
  0
VERTEX
  5
CCB
  8
LAYER_1
 10
-150.560868420676
 20
79.78611218977379
 30
0.0
  0
VERTEX
  5
CCC
  8
LAYER_1
 10
-150.1944976093697
 20
79.77496765319466
 30
0.0
  0
VERTEX
  5
CCD
  8
LAYER_1
 10
-149.8281267980634
 20
79.78615881963395
 30
0.0
  0
VERTEX
  5
CCE
  8
LAYER_1
 10
-149.469123504663
 20
79.81973231895182
 30
0.0
  0
VERTEX
  5
CCF
  8
LAYER_1
 10
-149.1174877291685
 20
79.87568815114827
 30
0.0
  0
VERTEX
  5
CD0
  8
LAYER_1
 10
-148.7732194715798
 20
79.9540263162233
 30
0.0
  0
VERTEX
  5
CD1
  8
LAYER_1
 10
-148.436318731897
 20
80.05474681417692
 30
0.0
  0
VERTEX
  5
CD2
  8
LAYER_1
 10
-148.1067855101201
 20
80.17784964500912
 30
0.0
  0
VERTEX
  5
CD3
  8
LAYER_1
 10
-147.784619806249
 20
80.32333480871989
 30
0.0
  0
VERTEX
  5
CD4
  8
LAYER_1
 10
-147.4698216202838
 20
80.49120230530926
 30
0.0
  0
VERTEX
  5
CD5
  8
LAYER_1
 10
-147.1623909522244
 20
80.6814521347772
 30
0.0
  0
VERTEX
  5
CD6
  8
LAYER_1
 10
-146.8623278020709
 20
80.89408429712371
 30
0.0
  0
VERTEX
  5
CD7
  8
LAYER_1
 10
-146.5696321698233
 20
81.12909879234881
 30
0.0
  0
VERTEX
  5
CD8
  8
LAYER_1
 10
-146.2843040554816
 20
81.3864956204525
 30
0.0
  0
VERTEX
  5
CD9
  8
LAYER_1
 10
-146.0063434590457
 20
81.66627478143475
 30
0.0
  0
VERTEX
  5
CDA
  8
LAYER_1
 10
-145.7357503805157
 20
81.9684362752956
 30
0.0
  0
VERTEX
  5
CDB
  8
LAYER_1
 10
-145.4725248198915
 20
82.29298010203503
 30
0.0
  0
VERTEX
  5
CDC
  8
LAYER_1
 10
-145.2166667771732
 20
82.63990626165304
 30
0.0
  0
VERTEX
  5
CDD
  8
LAYER_1
 10
-145.0925497468824
 20
82.82456050790134
 30
0.0
  0
VERTEX
  5
CDE
  8
LAYER_1
 10
-144.9723729397755
 20
83.02040592058891
 30
0.0
  0
VERTEX
  5
CDF
  8
LAYER_1
 10
-144.8561363558524
 20
83.22744249971578
 30
0.0
  0
VERTEX
  5
CE0
  8
LAYER_1
 10
-144.7438399951132
 20
83.44567024528195
 30
0.0
  0
VERTEX
  5
CE1
  8
LAYER_1
 10
-144.6354838575577
 20
83.6750891572874
 30
0.0
  0
VERTEX
  5
CE2
  8
LAYER_1
 10
-144.5310679431862
 20
83.91569923573215
 30
0.0
  0
VERTEX
  5
CE3
  8
LAYER_1
 10
-144.4305922519984
 20
84.1675004806162
 30
0.0
  0
VERTEX
  5
CE4
  8
LAYER_1
 10
-144.3340567839945
 20
84.43049289193952
 30
0.0
  0
VERTEX
  5
CE5
  8
LAYER_1
 10
-144.1528065175382
 20
84.99005121390405
 30
0.0
  0
VERTEX
  5
CE6
  8
LAYER_1
 10
-143.9873171438171
 20
85.59437420162573
 30
0.0
  0
VERTEX
  5
CE7
  8
LAYER_1
 10
-143.8375886628315
 20
86.24346185510458
 30
0.0
  0
VERTEX
  5
CE8
  8
LAYER_1
 10
-143.7036210745811
 20
86.93731417434061
 30
0.0
  0
VERTEX
  5
CE9
  8
LAYER_1
 10
-143.5854143790661
 20
87.6759311593338
 30
0.0
  0
VERTEX
  5
CEA
  8
LAYER_1
 10
-143.4829685762865
 20
88.45931281008413
 30
0.0
  0
VERTEX
  5
CEB
  8
LAYER_1
 10
-143.3962836662421
 20
89.28745912659164
 30
0.0
  0
VERTEX
  5
CEC
  8
LAYER_1
 10
-143.3253596489331
 20
90.16037010885631
 30
0.0
  0
VERTEX
  5
CED
  8
LAYER_1
 10
-143.2701965243594
 20
91.07804575687814
 30
0.0
  0
VERTEX
  5
CEE
  8
LAYER_1
 10
-143.2307942925211
 20
92.04048607065712
 30
0.0
  0
VERTEX
  5
CEF
  8
LAYER_1
 10
-143.2071529534181
 20
93.04769105019328
 30
0.0
  0
VERTEX
  5
CF0
  8
LAYER_1
 10
-143.1992725070504
 20
94.09966069548659
 30
0.0
  0
VERTEX
  5
CF1
  8
LAYER_1
 10
-143.2071529534181
 20
95.15731918371988
 30
0.0
  0
VERTEX
  5
CF2
  8
LAYER_1
 10
-143.2307942925211
 20
96.16965344787403
 30
0.0
  0
VERTEX
  5
CF3
  8
LAYER_1
 10
-143.2701965243594
 20
97.13666348794905
 30
0.0
  0
VERTEX
  5
CF4
  8
LAYER_1
 10
-143.3253596489331
 20
98.05834930394496
 30
0.0
  0
VERTEX
  5
CF5
  8
LAYER_1
 10
-143.3962836662421
 20
98.93471089586174
 30
0.0
  0
VERTEX
  5
CF6
  8
LAYER_1
 10
-143.4829685762864
 20
99.7657482636994
 30
0.0
  0
VERTEX
  5
CF7
  8
LAYER_1
 10
-143.585414379066
 20
100.5514614074579
 30
0.0
  0
VERTEX
  5
CF8
  8
LAYER_1
 10
-143.7036210745811
 20
101.2918503271373
 30
0.0
  0
VERTEX
  5
CF9
  8
LAYER_1
 10
-143.8375886628314
 20
101.9869150227376
 30
0.0
  0
VERTEX
  5
CFA
  8
LAYER_1
 10
-143.9873171438171
 20
102.6366554942587
 30
0.0
  0
VERTEX
  5
CFB
  8
LAYER_1
 10
-144.1528065175381
 20
103.2410717417008
 30
0.0
  0
VERTEX
  5
CFC
  8
LAYER_1
 10
-144.3340567839944
 20
103.8001637650637
 30
0.0
  0
VERTEX
  5
CFD
  8
LAYER_1
 10
-144.4305922519983
 20
104.0627131927154
 30
0.0
  0
VERTEX
  5
CFE
  8
LAYER_1
 10
-144.5310679431861
 20
104.3139315643474
 30
0.0
  0
VERTEX
  5
CFF
  8
LAYER_1
 10
-144.6354838575577
 20
104.5538188799597
 30
0.0
  0
VERTEX
  5
D00
  8
LAYER_1
 10
-144.7438399951131
 20
104.7823751395521
 30
0.0
  0
VERTEX
  5
D01
  8
LAYER_1
 10
-144.8561363558524
 20
104.9996003431247
 30
0.0
  0
VERTEX
  5
D02
  8
LAYER_1
 10
-144.9723729397755
 20
105.2054944906776
 30
0.0
  0
VERTEX
  5
D03
  8
LAYER_1
 10
-145.0925497468824
 20
105.4000575822107
 30
0.0
  0
VERTEX
  5
D04
  8
LAYER_1
 10
-145.2166667771731
 20
105.583289617724
 30
0.0
  0
VERTEX
  5
D05
  8
LAYER_1
 10
-145.4727113393321
 20
105.9273247260118
 30
0.0
  0
VERTEX
  5
D06
  8
LAYER_1
 10
-145.7364964582782
 20
106.2491640208618
 30
0.0
  0
VERTEX
  5
D07
  8
LAYER_1
 10
-146.0080221340115
 20
106.5488075022738
 30
0.0
  0
VERTEX
  5
D08
  8
LAYER_1
 10
-146.287288366532
 20
106.8262551702478
 30
0.0
  0
VERTEX
  5
D09
  8
LAYER_1
 10
-146.5742951558396
 20
107.081507024784
 30
0.0
  0
VERTEX
  5
D0A
  8
LAYER_1
 10
-146.8690425019344
 20
107.3145630658822
 30
0.0
  0
VERTEX
  5
D0B
  8
LAYER_1
 10
-147.1715304048164
 20
107.5254232935425
 30
0.0
  0
VERTEX
  5
D0C
  8
LAYER_1
 10
-147.4817588644856
 20
107.7140877077649
 30
0.0
  0
VERTEX
  5
D0D
  8
LAYER_1
 10
-147.7997278809419
 20
107.8805563085494
 30
0.0
  0
VERTEX
  5
D0E
  8
LAYER_1
 10
-148.1254374541854
 20
108.0248290958959
 30
0.0
  0
VERTEX
  5
D0F
  8
LAYER_1
 10
-148.4588875842161
 20
108.1469060698045
 30
0.0
  0
VERTEX
  5
D10
  8
LAYER_1
 10
-148.800078271034
 20
108.2467872302751
 30
0.0
  0
VERTEX
  5
D11
  8
LAYER_1
 10
-149.149009514639
 20
108.3244725773079
 30
0.0
  0
VERTEX
  5
D12
  8
LAYER_1
 10
-149.5056813150312
 20
108.3799621109027
 30
0.0
  0
VERTEX
  5
D13
  8
LAYER_1
 10
-149.8700936722106
 20
108.4132558310596
 30
0.0
  0
VERTEX
  5
D14
  8
LAYER_1
 10
-150.2422465861772
 20
108.4243537377786
 30
0.0
  0
VERTEX
  5
D15
  8
LAYER_1
 10
-150.6076381704201
 20
108.4145614671442
 30
0.0
  0
VERTEX
  5
D16
  8
LAYER_1
 10
-150.9637037826301
 20
108.3851846552411
 30
0.0
  0
VERTEX
  5
D17
  8
LAYER_1
 10
-151.3104434228075
 20
108.3362233020692
 30
0.0
  0
VERTEX
  5
D18
  8
LAYER_1
 10
-151.6478570909521
 20
108.2676774076285
 30
0.0
  0
VERTEX
  5
D19
  8
LAYER_1
 10
-151.975944787064
 20
108.1795469719191
 30
0.0
  0
VERTEX
  5
D1A
  8
LAYER_1
 10
-152.2947065111431
 20
108.0718319949409
 30
0.0
  0
VERTEX
  5
D1B
  8
LAYER_1
 10
-152.6041422631895
 20
107.944532476694
 30
0.0
  0
VERTEX
  5
D1C
  8
LAYER_1
 10
-152.9042520432031
 20
107.7976484171783
 30
0.0
  0
VERTEX
  5
D1D
  8
LAYER_1
 10
-153.1950358511841
 20
107.6311798163939
 30
0.0
  0
VERTEX
  5
D1E
  8
LAYER_1
 10
-153.4764936871322
 20
107.4451266743406
 30
0.0
  0
VERTEX
  5
D1F
  8
LAYER_1
 10
-153.7486255510476
 20
107.2394889910187
 30
0.0
  0
VERTEX
  5
D20
  8
LAYER_1
 10
-154.0114314429303
 20
107.014266766428
 30
0.0
  0
VERTEX
  5
D21
  8
LAYER_1
 10
-154.2649113627803
 20
106.7694600005685
 30
0.0
  0
VERTEX
  5
D22
  8
LAYER_1
 10
-154.5090653105974
 20
106.5050686934403
 30
0.0
  0
VERTEX
  5
D23
  8
LAYER_1
 10
-154.7438932863819
 20
106.2210928450432
 30
0.0
  0
VERTEX
  5
D24
  8
LAYER_1
 10
-154.9693952901336
 20
105.9175324553775
 30
0.0
  0
VERTEX
  5
D25
  8
LAYER_1
 10
-155.1059974654832
 20
105.7122911258669
 30
0.0
  0
VERTEX
  5
D26
  8
LAYER_1
 10
-155.2382630638375
 20
105.4964648180992
 30
0.0
  0
VERTEX
  5
D27
  8
LAYER_1
 10
-155.3661920851967
 20
105.2700535320743
 30
0.0
  0
VERTEX
  5
D28
  8
LAYER_1
 10
-155.4897845295606
 20
105.0330572677922
 30
0.0
  0
VERTEX
  5
D29
  8
LAYER_1
 10
-155.6090403969293
 20
104.785476025253
 30
0.0
  0
VERTEX
  5
D2A
  8
LAYER_1
 10
-155.7239596873027
 20
104.5273098044566
 30
0.0
  0
VERTEX
  5
D2B
  8
LAYER_1
 10
-155.834542400681
 20
104.2585586054031
 30
0.0
  0
VERTEX
  5
D2C
  8
LAYER_1
 10
-155.940788537064
 20
103.9792224280924
 30
0.0
  0
VERTEX
  5
D2D
  8
LAYER_1
 10
-156.1402710788444
 20
103.3887951386995
 30
0.0
  0
VERTEX
  5
D2E
  8
LAYER_1
 10
-156.3224073126438
 20
102.7560279362779
 30
0.0
  0
VERTEX
  5
D2F
  8
LAYER_1
 10
-156.4871972384624
 20
102.0809208208277
 30
0.0
  0
VERTEX
  5
D30
  8
LAYER_1
 10
-156.6346408563001
 20
101.3634737923488
 30
0.0
  0
VERTEX
  5
D31
  8
LAYER_1
 10
-156.7647381661568
 20
100.6036868508413
 30
0.0
  0
VERTEX
  5
D32
  8
LAYER_1
 10
-156.8774891680326
 20
99.80155999630517
 30
0.0
  0
VERTEX
  5
D33
  8
LAYER_1
 10
-156.9728938619276
 20
98.95709322874038
 30
0.0
  0
VERTEX
  5
D34
  8
LAYER_1
 10
-157.0509522478417
 20
98.07028654814694
 30
0.0
  0
VERTEX
  5
D35
  8
LAYER_1
 10
-157.1116643257748
 20
97.14113995452485
 30
0.0
  0
VERTEX
  5
D36
  8
LAYER_1
 10
-157.1550300957271
 20
96.16965344787408
 30
0.0
  0
VERTEX
  5
D37
  8
LAYER_1
 10
-157.1810495576984
 20
95.1558270281947
 30
0.0
  0
SEQEND
  5
EA9
  8
LAYER_1
  0
POLYLINE
  5
84
  8
LAYER_1
 66
     1
 10
0.0
 20
0.0
 30
0.0
 70
     1
  0
VERTEX
  5
D38
  8
LAYER_1
 10
-100.3360347987322
 20
146.9732264690782
 30
0.0
  0
VERTEX
  5
D39
  8
LAYER_1
 10
-104.6334427114198
 20
146.9732264690782
 30
0.0
  0
VERTEX
  5
D3A
  8
LAYER_1
 10
-104.6334427114198
 20
174.3572646682597
 30
0.0
  0
VERTEX
  5
D3B
  8
LAYER_1
 10
-105.0365112226749
 20
173.9872100980004
 30
0.0
  0
VERTEX
  5
D3C
  8
LAYER_1
 10
-105.4697958833161
 20
173.6171555277413
 30
0.0
  0
VERTEX
  5
D3D
  8
LAYER_1
 10
-105.9332966933434
 20
173.247100957482
 30
0.0
  0
VERTEX
  5
D3E
  8
LAYER_1
 10
-106.4270136527567
 20
172.8770463872228
 30
0.0
  0
VERTEX
  5
D3F
  8
LAYER_1
 10
-106.9509467615562
 20
172.5069918169636
 30
0.0
  0
VERTEX
  5
D40
  8
LAYER_1
 10
-107.5050960197417
 20
172.1369372467044
 30
0.0
  0
VERTEX
  5
D41
  8
LAYER_1
 10
-108.0894614273134
 20
171.7668826764452
 30
0.0
  0
VERTEX
  5
D42
  8
LAYER_1
 10
-108.7040429842711
 20
171.396828106186
 30
0.0
  0
VERTEX
  5
D43
  8
LAYER_1
 10
-109.3257122799736
 20
171.0383377412474
 30
0.0
  0
VERTEX
  5
D44
  8
LAYER_1
 10
-109.9313409037799
 20
170.70297578695
 30
0.0
  0
VERTEX
  5
D45
  8
LAYER_1
 10
-110.5209288556899
 20
170.3907422432938
 30
0.0
  0
VERTEX
  5
D46
  8
LAYER_1
 10
-111.0944761357035
 20
170.1016371102788
 30
0.0
  0
VERTEX
  5
D47
  8
LAYER_1
 10
-111.6519827438209
 20
169.835660387905
 30
0.0
  0
VERTEX
  5
D48
  8
LAYER_1
 10
-112.1934486800419
 20
169.5928120761724
 30
0.0
  0
VERTEX
  5
D49
  8
LAYER_1
 10
-112.7188739443665
 20
169.373092175081
 30
0.0
  0
VERTEX
  5
D4A
  8
LAYER_1
 10
-113.2282585367949
 20
169.1765006846308
 30
0.0
  0
VERTEX
  5
D4B
  8
LAYER_1
 10
-113.2282585367949
 20
173.3306616668954
 30
0.0
  0
VERTEX
  5
D4C
  8
LAYER_1
 10
-112.7811714375453
 20
173.5453455430891
 30
0.0
  0
VERTEX
  5
D4D
  8
LAYER_1
 10
-112.3411720770405
 20
173.7656250025025
 30
0.0
  0
VERTEX
  5
D4E
  8
LAYER_1
 10
-111.9082604552806
 20
173.9915000451355
 30
0.0
  0
VERTEX
  5
D4F
  8
LAYER_1
 10
-111.4824365722656
 20
174.2229706709882
 30
0.0
  0
VERTEX
  5
D50
  8
LAYER_1
 10
-111.0637004279955
 20
174.4600368800605
 30
0.0
  0
VERTEX
  5
D51
  8
LAYER_1
 10
-110.6520520224702
 20
174.7026986723524
 30
0.0
  0
VERTEX
  5
D52
  8
LAYER_1
 10
-110.2474913556899
 20
174.950956047864
 30
0.0
  0
VERTEX
  5
D53
  8
LAYER_1
 10
-109.8500184276544
 20
175.2048090065953
 30
0.0
  0
VERTEX
  5
D54
  8
LAYER_1
 10
-109.4596332383638
 20
175.4642575485462
 30
0.0
  0
VERTEX
  5
D55
  8
LAYER_1
 10
-109.0763357878181
 20
175.7293016737167
 30
0.0
  0
VERTEX
  5
D56
  8
LAYER_1
 10
-108.7001260760173
 20
175.9999413821069
 30
0.0
  0
VERTEX
  5
D57
  8
LAYER_1
 10
-108.3310041029614
 20
176.2761766737167
 30
0.0
  0
VERTEX
  5
D58
  8
LAYER_1
 10
-107.9689698686503
 20
176.5580075485462
 30
0.0
  0
VERTEX
  5
D59
  8
LAYER_1
 10
-107.6140233730842
 20
176.8454340065953
 30
0.0
  0
VERTEX
  5
D5A
  8
LAYER_1
 10
-107.2661646162629
 20
177.138456047864
 30
0.0
  0
VERTEX
  5
D5B
  8
LAYER_1
 10
-106.9253935981865
 20
177.4370736723524
 30
0.0
  0
VERTEX
  5
D5C
  8
LAYER_1
 10
-106.5943215910241
 20
177.7379295301287
 30
0.0
  0
VERTEX
  5
D5D
  8
LAYER_1
 10
-106.275559866945
 20
178.037666271261
 30
0.0
  0
VERTEX
  5
D5E
  8
LAYER_1
 10
-105.9691084259491
 20
178.3362838957494
 30
0.0
  0
VERTEX
  5
D5F
  8
LAYER_1
 10
-105.6749672680364
 20
178.6337824035939
 30
0.0
  0
VERTEX
  5
D60
  8
LAYER_1
 10
-105.3931363932069
 20
178.9301617947945
 30
0.0
  0
VERTEX
  5
D61
  8
LAYER_1
 10
-105.1236158014607
 20
179.2254220693511
 30
0.0
  0
VERTEX
  5
D62
  8
LAYER_1
 10
-104.8664054927977
 20
179.5195632272637
 30
0.0
  0
VERTEX
  5
D63
  8
LAYER_1
 10
-104.6215054672178
 20
179.8125852685325
 30
0.0
  0
VERTEX
  5
D64
  8
LAYER_1
 10
-104.3889157247213
 20
180.1044881931574
 30
0.0
  0
VERTEX
  5
D65
  8
LAYER_1
 10
-104.1686362653079
 20
180.3952720011383
 30
0.0
  0
VERTEX
  5
D66
  8
LAYER_1
 10
-103.9606670889777
 20
180.6849366924752
 30
0.0
  0
VERTEX
  5
D67
  8
LAYER_1
 10
-103.7650081957308
 20
180.9734822671683
 30
0.0
  0
VERTEX
  5
D68
  8
LAYER_1
 10
-103.5816595855671
 20
181.2609087252174
 30
0.0
  0
VERTEX
  5
D69
  8
LAYER_1
 10
-103.4106212584866
 20
181.5472160666226
 30
0.0
  0
VERTEX
  5
D6A
  8
LAYER_1
 10
-103.2518932144893
 20
181.8324042913838
 30
0.0
  0
VERTEX
  5
D6B
  8
LAYER_1
 10
-103.1054754535753
 20
182.1164733995012
 30
0.0
  0
VERTEX
  5
D6C
  8
LAYER_1
 10
-100.3360347987322
 20
182.1164733995012
 30
0.0
  0
SEQEND
  5
EAA
  8
LAYER_1
  0
POLYLINE
  5
85
  8
LAYER_1
 66
     1
 10
0.0
 20
0.0
 30
0.0
 70
     1
  0
VERTEX
  5
D6D
  8
LAYER_1
 10
-76.77191474416192
 20
146.9732264690782
 30
0.0
  0
VERTEX
  5
D6E
  8
LAYER_1
 10
-81.06932265684951
 20
146.9732264690782
 30
0.0
  0
VERTEX
  5
D6F
  8
LAYER_1
 10
-81.0693226568495
 20
174.3572646682597
 30
0.0
  0
VERTEX
  5
D70
  8
LAYER_1
 10
-81.47239116810462
 20
173.9872100980004
 30
0.0
  0
VERTEX
  5
D71
  8
LAYER_1
 10
-81.90567582874581
 20
173.6171555277413
 30
0.0
  0
VERTEX
  5
D72
  8
LAYER_1
 10
-82.3691766387731
 20
173.247100957482
 30
0.0
  0
VERTEX
  5
D73
  8
LAYER_1
 10
-82.86289359818647
 20
172.8770463872228
 30
0.0
  0
VERTEX
  5
D74
  8
LAYER_1
 10
-83.38682670698593
 20
172.5069918169636
 30
0.0
  0
VERTEX
  5
D75
  8
LAYER_1
 10
-83.94097596517146
 20
172.1369372467044
 30
0.0
  0
VERTEX
  5
D76
  8
LAYER_1
 10
-84.52534137274309
 20
171.7668826764452
 30
0.0
  0
VERTEX
  5
D77
  8
LAYER_1
 10
-85.13992292970079
 20
171.396828106186
 30
0.0
  0
VERTEX
  5
D78
  8
LAYER_1
 10
-85.76159222540339
 20
171.0383377412474
 30
0.0
  0
VERTEX
  5
D79
  8
LAYER_1
 10
-86.36722084920966
 20
170.70297578695
 30
0.0
  0
VERTEX
  5
D7A
  8
LAYER_1
 10
-86.95680880111962
 20
170.3907422432938
 30
0.0
  0
VERTEX
  5
D7B
  8
LAYER_1
 10
-87.53035608113328
 20
170.1016371102788
 30
0.0
  0
VERTEX
  5
D7C
  8
LAYER_1
 10
-88.0878626892506
 20
169.835660387905
 30
0.0
  0
VERTEX
  5
D7D
  8
LAYER_1
 10
-88.6293286254716
 20
169.5928120761724
 30
0.0
  0
VERTEX
  5
D7E
  8
LAYER_1
 10
-89.1547538897963
 20
169.373092175081
 30
0.0
  0
VERTEX
  5
D7F
  8
LAYER_1
 10
-89.66413848222467
 20
169.1765006846308
 30
0.0
  0
VERTEX
  5
D80
  8
LAYER_1
 10
-89.66413848222467
 20
173.3306616668954
 30
0.0
  0
VERTEX
  5
D81
  8
LAYER_1
 10
-89.21705138297503
 20
173.5453455430891
 30
0.0
  0
VERTEX
  5
D82
  8
LAYER_1
 10
-88.77705202247023
 20
173.7656250025025
 30
0.0
  0
VERTEX
  5
D83
  8
LAYER_1
 10
-88.34414040071036
 20
173.9915000451355
 30
0.0
  0
VERTEX
  5
D84
  8
LAYER_1
 10
-87.91831651769533
 20
174.2229706709882
 30
0.0
  0
VERTEX
  5
D85
  8
LAYER_1
 10
-87.4995803734252
 20
174.4600368800605
 30
0.0
  0
VERTEX
  5
D86
  8
LAYER_1
 10
-87.08793196789996
 20
174.7026986723524
 30
0.0
  0
VERTEX
  5
D87
  8
LAYER_1
 10
-86.68337130111962
 20
174.950956047864
 30
0.0
  0
VERTEX
  5
D88
  8
LAYER_1
 10
-86.28589837308414
 20
175.2048090065953
 30
0.0
  0
VERTEX
  5
D89
  8
LAYER_1
 10
-85.89551318379355
 20
175.4642575485462
 30
0.0
  0
VERTEX
  5
D8A
  8
LAYER_1
 10
-85.51221573324786
 20
175.7293016737167
 30
0.0
  0
VERTEX
  5
D8B
  8
LAYER_1
 10
-85.13600602144705
 20
175.9999413821069
 30
0.0
  0
VERTEX
  5
D8C
  8
LAYER_1
 10
-84.7668840483911
 20
176.2761766737167
 30
0.0
  0
VERTEX
  5
D8D
  8
LAYER_1
 10
-84.40484981408007
 20
176.5580075485462
 30
0.0
  0
VERTEX
  5
D8E
  8
LAYER_1
 10
-84.04990331851388
 20
176.8454340065953
 30
0.0
  0
VERTEX
  5
D8F
  8
LAYER_1
 10
-83.7020445616926
 20
177.138456047864
 30
0.0
  0
VERTEX
  5
D90
  8
LAYER_1
 10
-83.3612735436162
 20
177.4370736723524
 30
0.0
  0
VERTEX
  5
D91
  8
LAYER_1
 10
-83.03020153645387
 20
177.7379295301287
 30
0.0
  0
VERTEX
  5
D92
  8
LAYER_1
 10
-82.71143981237473
 20
178.037666271261
 30
0.0
  0
VERTEX
  5
D93
  8
LAYER_1
 10
-82.40498837137883
 20
178.3362838957494
 30
0.0
  0
VERTEX
  5
D94
  8
LAYER_1
 10
-82.11084721346614
 20
178.6337824035939
 30
0.0
  0
VERTEX
  5
D95
  8
LAYER_1
 10
-81.82901633863668
 20
178.9301617947945
 30
0.0
  0
VERTEX
  5
D96
  8
LAYER_1
 10
-81.55949574689042
 20
179.2254220693511
 30
0.0
  0
VERTEX
  5
D97
  8
LAYER_1
 10
-81.3022854382274
 20
179.5195632272637
 30
0.0
  0
VERTEX
  5
D98
  8
LAYER_1
 10
-81.05738541264759
 20
179.8125852685325
 30
0.0
  0
VERTEX
  5
D99
  8
LAYER_1
 10
-80.824795670151
 20
180.1044881931574
 30
0.0
  0
VERTEX
  5
D9A
  8
LAYER_1
 10
-80.60451621073761
 20
180.3952720011383
 30
0.0
  0
VERTEX
  5
D9B
  8
LAYER_1
 10
-80.39654703440746
 20
180.6849366924752
 30
0.0
  0
VERTEX
  5
D9C
  8
LAYER_1
 10
-80.20088814116053
 20
180.9734822671683
 30
0.0
  0
VERTEX
  5
D9D
  8
LAYER_1
 10
-80.01753953099683
 20
181.2609087252174
 30
0.0
  0
VERTEX
  5
D9E
  8
LAYER_1
 10
-79.84650120391633
 20
181.5472160666226
 30
0.0
  0
VERTEX
  5
D9F
  8
LAYER_1
 10
-79.68777315991908
 20
181.8324042913838
 30
0.0
  0
VERTEX
  5
DA0
  8
LAYER_1
 10
-79.54135539900501
 20
182.1164733995012
 30
0.0
  0
VERTEX
  5
DA1
  8
LAYER_1
 10
-76.7719147441619
 20
182.1164733995012
 30
0.0
  0
SEQEND
  5
EAB
  8
LAYER_1
  0
POLYLINE
  5
86
  8
LAYER_1
 66
     1
 10
0.0
 20
0.0
 30
0.0
 70
     1
  0
VERTEX
  5
DA2
  8
LAYER_1
 10
0.0
 20
3.0
 30
0.0
 42
0.4142135623730951
  0
VERTEX
  5
DA3
  8
LAYER_1
 10
-3.0
 20
0.0
 30
0.0
 42
0.4142135623730951
  0
VERTEX
  5
DA4
  8
LAYER_1
 10
0.0
 20
-3.0
 30
0.0
 42
0.4142135623730951
  0
VERTEX
  5
DA5
  8
LAYER_1
 10
3.0
 20
0.0
 30
0.0
 42
0.4142135623730951
  0
SEQEND
  5
EAC
  8
LAYER_1
  0
POLYLINE
  5
87
  8
LAYER_1
 66
     1
 10
0.0
 20
0.0
 30
0.0
 70
     1
  0
VERTEX
  5
DA6
  8
LAYER_1
 10
-1.75
 20
143.3877121530984
 30
0.0
  0
VERTEX
  5
DA7
  8
LAYER_1
 10
1.75
 20
143.3877121530984
 30
0.0
  0
VERTEX
  5
DA8
  8
LAYER_1
 10
1.75
 20
153.3877121530984
 30
0.0
  0
VERTEX
  5
DA9
  8
LAYER_1
 10
-1.75
 20
153.3877121530984
 30
0.0
  0
SEQEND
  5
EAD
  8
LAYER_1
  0
POLYLINE
  5
88
  8
LAYER_1
 66
     1
 10
0.0
 20
0.0
 30
0.0
 70
     1
  0
VERTEX
  5
DAA
  8
LAYER_1
 10
14.12446863582261
 20
142.7391937320873
 30
0.0
  0
VERTEX
  5
DAB
  8
LAYER_1
 10
17.60529526961157
 20
142.3733441106505
 30
0.0
  0
VERTEX
  5
DAC
  8
LAYER_1
 10
18.6505799022881
 20
152.3185630643333
 30
0.0
  0
VERTEX
  5
DAD
  8
LAYER_1
 10
15.16975326849915
 20
152.68441268577
 30
0.0
  0
SEQEND
  5
EAE
  8
LAYER_1
  0
POLYLINE
  5
89
  8
LAYER_1
 66
     1
 10
0.0
 20
0.0
 30
0.0
 70
     1
  0
VERTEX
  5
DAE
  8
LAYER_1
 10
29.84418663753607
 20
140.434894151149
 30
0.0
  0
VERTEX
  5
DAF
  8
LAYER_1
 10
33.2677032401044
 20
139.7072032332869
 30
0.0
  0
VERTEX
  5
DB0
  8
LAYER_1
 10
35.34682014828199
 20
149.4886792406249
 30
0.0
  0
VERTEX
  5
DB1
  8
LAYER_1
 10
31.92330354571367
 20
150.2163701584871
 30
0.0
  0
SEQEND
  5
EAF
  8
LAYER_1
  0
POLYLINE
  5
8A
  8
LAYER_1
 66
     1
 10
0.0
 20
0.0
 30
0.0
 70
     1
  0
VERTEX
  5
DB2
  8
LAYER_1
 10
45.23692548515113
 20
136.5000597986979
 30
0.0
  0
VERTEX
  5
DB3
  8
LAYER_1
 10
48.56562329218417
 20
135.4185003183856
 30
0.0
  0
VERTEX
  5
DB4
  8
LAYER_1
 10
51.65579323593364
 20
144.9290654813372
 30
0.0
  0
VERTEX
  5
DB5
  8
LAYER_1
 10
48.32709542890061
 20
146.0106249616495
 30
0.0
  0
SEQEND
  5
EB0
  8
LAYER_1
  0
POLYLINE
  5
8B
  8
LAYER_1
 66
     1
 10
0.0
 20
0.0
 30
0.0
 70
     1
  0
VERTEX
  5
DB6
  8
LAYER_1
 10
60.13403911071562
 20
130.9778015433166
 30
0.0
  0
VERTEX
  5
DB7
  8
LAYER_1
 10
63.33144821246472
 20
129.5542232925513
 30
0.0
  0
VERTEX
  5
DB8
  8
LAYER_1
 10
67.39881464322274
 20
138.6896778689773
 30
0.0
  0
VERTEX
  5
DB9
  8
LAYER_1
 10
64.20140554147363
 20
140.1132561197426
 30
0.0
  0
SEQEND
  5
EB1
  8
LAYER_1
  0
POLYLINE
  5
8C
  8
LAYER_1
 66
     1
 10
0.0
 20
0.0
 30
0.0
 70
     1
  0
VERTEX
  5
DBA
  8
LAYER_1
 10
74.37231161992644
 20
123.9286224020578
 30
0.0
  0
VERTEX
  5
DBB
  8
LAYER_1
 10
77.40340053317196
 20
122.1786224020578
 30
0.0
  0
VERTEX
  5
DBC
  8
LAYER_1
 10
82.40340053317196
 20
130.8388764399022
 30
0.0
  0
VERTEX
  5
DBD
  8
LAYER_1
 10
79.37231161992644
 20
132.5888764399022
 30
0.0
  0
SEQEND
  5
EB2
  8
LAYER_1
  0
POLYLINE
  5
8D
  8
LAYER_1
 66
     1
 10
0.0
 20
0.0
 30
0.0
 70
     1
  0
VERTEX
  5
DBE
  8
LAYER_1
 10
87.79574551962257
 20
115.4297546567287
 30
0.0
  0
VERTEX
  5
DBF
  8
LAYER_1
 10
90.62730499993488
 20
113.3725062737051
 30
0.0
  0
VERTEX
  5
DC0
  8
LAYER_1
 10
96.50515752285962
 20
121.4626762174545
 30
0.0
  0
VERTEX
  5
DC1
  8
LAYER_1
 10
93.67359804254731
 20
123.5199246004782
 30
0.0
  0
SEQEND
  5
EB3
  8
LAYER_1
  0
POLYLINE
  5
8E
  8
LAYER_1
 66
     1
 10
0.0
 20
0.0
 30
0.0
 70
     1
  0
VERTEX
  5
DC2
  8
LAYER_1
 10
100.2572708589648
 20
105.5743136808495
 30
0.0
  0
VERTEX
  5
DC3
  8
LAYER_1
 10
102.8582777481357
 20
103.2323565585936
 30
0.0
  0
VERTEX
  5
DC4
  8
LAYER_1
 10
109.5495838117243
 20
110.6638048133675
 30
0.0
  0
VERTEX
  5
DC5
  8
LAYER_1
 10
106.9485769225534
 20
113.0057619356235
 30
0.0
  0
SEQEND
  5
EB4
  8
LAYER_1
  0
POLYLINE
  5
8F
  8
LAYER_1
 66
     1
 10
0.0
 20
0.0
 30
0.0
 70
     1
  0
VERTEX
  5
DC6
  8
LAYER_1
 10
111.6203565585935
 20
94.47027774813573
 30
0.0
  0
VERTEX
  5
DC7
  8
LAYER_1
 10
113.9623136808495
 20
91.86927085896484
 30
0.0
  0
VERTEX
  5
DC8
  8
LAYER_1
 10
121.3937619356235
 20
98.56057692255341
 30
0.0
  0
VERTEX
  5
DC9
  8
LAYER_1
 10
119.0518048133675
 20
101.1615838117243
 30
0.0
  0
SEQEND
  5
EB5
  8
LAYER_1
  0
POLYLINE
  5
90
  8
LAYER_1
 66
     1
 10
0.0
 20
0.0
 30
0.0
 70
     1
  0
VERTEX
  5
DCA
  8
LAYER_1
 10
121.760506273705
 20
82.23930499993489
 30
0.0
  0
VERTEX
  5
DCB
  8
LAYER_1
 10
123.8177546567287
 20
79.40774551962258
 30
0.0
  0
VERTEX
  5
DCC
  8
LAYER_1
 10
131.9079246004782
 20
85.28559804254732
 30
0.0
  0
VERTEX
  5
DCD
  8
LAYER_1
 10
129.8506762174545
 20
88.11715752285963
 30
0.0
  0
SEQEND
  5
EB6
  8
LAYER_1
  0
POLYLINE
  5
91
  8
LAYER_1
 66
     1
 10
0.0
 20
0.0
 30
0.0
 70
     1
  0
VERTEX
  5
DCE
  8
LAYER_1
 10
130.5666224020578
 20
69.01540053317198
 30
0.0
  0
VERTEX
  5
DCF
  8
LAYER_1
 10
132.3166224020578
 20
65.98431161992646
 30
0.0
  0
VERTEX
  5
DD0
  8
LAYER_1
 10
140.9768764399022
 20
70.98431161992646
 30
0.0
  0
VERTEX
  5
DD1
  8
LAYER_1
 10
139.2268764399022
 20
74.01540053317198
 30
0.0
  0
SEQEND
  5
EB7
  8
LAYER_1
  0
POLYLINE
  5
92
  8
LAYER_1
 66
     1
 10
0.0
 20
0.0
 30
0.0
 70
     1
  0
VERTEX
  5
DD2
  8
LAYER_1
 10
137.9422232925513
 20
54.94344821246473
 30
0.0
  0
VERTEX
  5
DD3
  8
LAYER_1
 10
139.3658015433166
 20
51.74603911071563
 30
0.0
  0
VERTEX
  5
DD4
  8
LAYER_1
 10
148.5012561197426
 20
55.81340554147364
 30
0.0
  0
VERTEX
  5
DD5
  8
LAYER_1
 10
147.0776778689773
 20
59.01081464322274
 30
0.0
  0
SEQEND
  5
EB8
  8
LAYER_1
  0
POLYLINE
  5
93
  8
LAYER_1
 66
     1
 10
0.0
 20
0.0
 30
0.0
 70
     1
  0
VERTEX
  5
DD6
  8
LAYER_1
 10
143.8065003183856
 20
40.17762329218418
 30
0.0
  0
VERTEX
  5
DD7
  8
LAYER_1
 10
144.888059798698
 20
36.84892548515114
 30
0.0
  0
VERTEX
  5
DD8
  8
LAYER_1
 10
154.3986249616495
 20
39.93909542890061
 30
0.0
  0
VERTEX
  5
DD9
  8
LAYER_1
 10
153.3170654813372
 20
43.26779323593365
 30
0.0
  0
SEQEND
  5
EB9
  8
LAYER_1
  0
POLYLINE
  5
94
  8
LAYER_1
 66
     1
 10
0.0
 20
0.0
 30
0.0
 70
     1
  0
VERTEX
  5
DDA
  8
LAYER_1
 10
148.0952032332868
 20
24.87970324010441
 30
0.0
  0
VERTEX
  5
DDB
  8
LAYER_1
 10
148.822894151149
 20
21.45618663753609
 30
0.0
  0
VERTEX
  5
DDC
  8
LAYER_1
 10
158.604370158487
 20
23.53530354571369
 30
0.0
  0
VERTEX
  5
DDD
  8
LAYER_1
 10
157.8766792406249
 20
26.95882014828201
 30
0.0
  0
SEQEND
  5
EBA
  8
LAYER_1
  0
POLYLINE
  5
95
  8
LAYER_1
 66
     1
 10
0.0
 20
0.0
 30
0.0
 70
     1
  0
VERTEX
  5
DDE
  8
LAYER_1
 10
150.7613441106505
 20
9.217295269611572
 30
0.0
  0
VERTEX
  5
DDF
  8
LAYER_1
 10
151.1271937320873
 20
5.736468635822614
 30
0.0
  0
VERTEX
  5
DE0
  8
LAYER_1
 10
161.07241268577
 20
6.781753268499148
 30
0.0
  0
VERTEX
  5
DE1
  8
LAYER_1
 10
160.7065630643333
 20
10.26257990228811
 30
0.0
  0
SEQEND
  5
EBB
  8
LAYER_1
  0
POLYLINE
  5
96
  8
LAYER_1
 66
     1
 10
0.0
 20
0.0
 30
0.0
 70
     1
  0
VERTEX
  5
DE2
  8
LAYER_1
 10
151.7757121530984
 20
-6.637999999999989
 30
0.0
  0
VERTEX
  5
DE3
  8
LAYER_1
 10
151.7757121530984
 20
-10.13799999999999
 30
0.0
  0
VERTEX
  5
DE4
  8
LAYER_1
 10
161.7757121530984
 20
-10.13799999999999
 30
0.0
  0
VERTEX
  5
DE5
  8
LAYER_1
 10
161.7757121530984
 20
-6.637999999999989
 30
0.0
  0
SEQEND
  5
EBC
  8
LAYER_1
  0
POLYLINE
  5
97
  8
LAYER_1
 66
     1
 10
0.0
 20
0.0
 30
0.0
 70
     1
  0
VERTEX
  5
DE6
  8
LAYER_1
 10
151.1271937320873
 20
-22.51246863582259
 30
0.0
  0
VERTEX
  5
DE7
  8
LAYER_1
 10
150.7613441106506
 20
-25.99329526961155
 30
0.0
  0
VERTEX
  5
DE8
  8
LAYER_1
 10
160.7065630643333
 20
-27.03857990228808
 30
0.0
  0
VERTEX
  5
DE9
  8
LAYER_1
 10
161.07241268577
 20
-23.55775326849913
 30
0.0
  0
SEQEND
  5
EBD
  8
LAYER_1
  0
POLYLINE
  5
98
  8
LAYER_1
 66
     1
 10
0.0
 20
0.0
 30
0.0
 70
     1
  0
VERTEX
  5
DEA
  8
LAYER_1
 10
148.822894151149
 20
-38.23218663753605
 30
0.0
  0
VERTEX
  5
DEB
  8
LAYER_1
 10
148.0952032332868
 20
-41.65570324010437
 30
0.0
  0
VERTEX
  5
DEC
  8
LAYER_1
 10
157.8766792406249
 20
-43.73482014828195
 30
0.0
  0
VERTEX
  5
DED
  8
LAYER_1
 10
158.6043701584871
 20
-40.31130354571363
 30
0.0
  0
SEQEND
  5
EBE
  8
LAYER_1
  0
POLYLINE
  5
99
  8
LAYER_1
 66
     1
 10
0.0
 20
0.0
 30
0.0
 70
     1
  0
VERTEX
  5
DEE
  8
LAYER_1
 10
144.888059798698
 20
-53.62492548515112
 30
0.0
  0
VERTEX
  5
DEF
  8
LAYER_1
 10
143.8065003183856
 20
-56.95362329218416
 30
0.0
  0
VERTEX
  5
DF0
  8
LAYER_1
 10
153.3170654813372
 20
-60.04379323593363
 30
0.0
  0
VERTEX
  5
DF1
  8
LAYER_1
 10
154.3986249616495
 20
-56.7150954289006
 30
0.0
  0
SEQEND
  5
EBF
  8
LAYER_1
  0
POLYLINE
  5
9A
  8
LAYER_1
 66
     1
 10
0.0
 20
0.0
 30
0.0
 70
     1
  0
VERTEX
  5
DF2
  8
LAYER_1
 10
139.3658015433166
 20
-68.52203911071561
 30
0.0
  0
VERTEX
  5
DF3
  8
LAYER_1
 10
137.9422232925513
 20
-71.71944821246471
 30
0.0
  0
VERTEX
  5
DF4
  8
LAYER_1
 10
147.0776778689773
 20
-75.78681464322271
 30
0.0
  0
VERTEX
  5
DF5
  8
LAYER_1
 10
148.5012561197426
 20
-72.58940554147361
 30
0.0
  0
SEQEND
  5
EC0
  8
LAYER_1
  0
POLYLINE
  5
9B
  8
LAYER_1
 66
     1
 10
0.0
 20
0.0
 30
0.0
 70
     1
  0
VERTEX
  5
DF6
  8
LAYER_1
 10
132.3166224020578
 20
-82.76031161992641
 30
0.0
  0
VERTEX
  5
DF7
  8
LAYER_1
 10
130.5666224020578
 20
-85.79140053317194
 30
0.0
  0
VERTEX
  5
DF8
  8
LAYER_1
 10
139.2268764399022
 20
-90.79140053317194
 30
0.0
  0
VERTEX
  5
DF9
  8
LAYER_1
 10
140.9768764399022
 20
-87.76031161992641
 30
0.0
  0
SEQEND
  5
EC1
  8
LAYER_1
  0
POLYLINE
  5
9C
  8
LAYER_1
 66
     1
 10
0.0
 20
0.0
 30
0.0
 70
     1
  0
VERTEX
  5
DFA
  8
LAYER_1
 10
123.8177546567287
 20
-96.18374551962256
 30
0.0
  0
VERTEX
  5
DFB
  8
LAYER_1
 10
121.760506273705
 20
-99.01530499993487
 30
0.0
  0
VERTEX
  5
DFC
  8
LAYER_1
 10
129.8506762174545
 20
-104.8931575228596
 30
0.0
  0
VERTEX
  5
DFD
  8
LAYER_1
 10
131.9079246004782
 20
-102.0615980425473
 30
0.0
  0
SEQEND
  5
EC2
  8
LAYER_1
  0
POLYLINE
  5
9D
  8
LAYER_1
 66
     1
 10
0.0
 20
0.0
 30
0.0
 70
     1
  0
VERTEX
  5
DFE
  8
LAYER_1
 10
113.9623136808495
 20
-108.6452708589648
 30
0.0
  0
VERTEX
  5
DFF
  8
LAYER_1
 10
111.6203565585936
 20
-111.2462777481357
 30
0.0
  0
VERTEX
  5
E00
  8
LAYER_1
 10
119.0518048133675
 20
-117.9375838117243
 30
0.0
  0
VERTEX
  5
E01
  8
LAYER_1
 10
121.3937619356235
 20
-115.3365769225534
 30
0.0
  0
SEQEND
  5
EC3
  8
LAYER_1
  0
POLYLINE
  5
9E
  8
LAYER_1
 66
     1
 10
0.0
 20
0.0
 30
0.0
 70
     1
  0
VERTEX
  5
E02
  8
LAYER_1
 10
102.8582777481357
 20
-120.0083565585935
 30
0.0
  0
VERTEX
  5
E03
  8
LAYER_1
 10
100.2572708589649
 20
-122.3503136808495
 30
0.0
  0
VERTEX
  5
E04
  8
LAYER_1
 10
106.9485769225534
 20
-129.7817619356235
 30
0.0
  0
VERTEX
  5
E05
  8
LAYER_1
 10
109.5495838117243
 20
-127.4398048133675
 30
0.0
  0
SEQEND
  5
EC4
  8
LAYER_1
  0
POLYLINE
  5
9F
  8
LAYER_1
 66
     1
 10
0.0
 20
0.0
 30
0.0
 70
     1
  0
VERTEX
  5
E06
  8
LAYER_1
 10
90.6273049999349
 20
-130.148506273705
 30
0.0
  0
VERTEX
  5
E07
  8
LAYER_1
 10
87.7957455196226
 20
-132.2057546567287
 30
0.0
  0
VERTEX
  5
E08
  8
LAYER_1
 10
93.67359804254733
 20
-140.2959246004781
 30
0.0
  0
VERTEX
  5
E09
  8
LAYER_1
 10
96.50515752285963
 20
-138.2386762174545
 30
0.0
  0
SEQEND
  5
EC5
  8
LAYER_1
  0
POLYLINE
  5
A0
  8
LAYER_1
 66
     1
 10
0.0
 20
0.0
 30
0.0
 70
     1
  0
VERTEX
  5
E0A
  8
LAYER_1
 10
77.40340053317196
 20
-138.9546224020578
 30
0.0
  0
VERTEX
  5
E0B
  8
LAYER_1
 10
74.37231161992644
 20
-140.7046224020578
 30
0.0
  0
VERTEX
  5
E0C
  8
LAYER_1
 10
79.37231161992644
 20
-149.3648764399022
 30
0.0
  0
VERTEX
  5
E0D
  8
LAYER_1
 10
82.40340053317196
 20
-147.6148764399022
 30
0.0
  0
SEQEND
  5
EC6
  8
LAYER_1
  0
POLYLINE
  5
A1
  8
LAYER_1
 66
     1
 10
0.0
 20
0.0
 30
0.0
 70
     1
  0
VERTEX
  5
E0E
  8
LAYER_1
 10
63.33144821246477
 20
-146.3302232925513
 30
0.0
  0
VERTEX
  5
E0F
  8
LAYER_1
 10
60.13403911071567
 20
-147.7538015433166
 30
0.0
  0
VERTEX
  5
E10
  8
LAYER_1
 10
64.20140554147368
 20
-156.8892561197426
 30
0.0
  0
VERTEX
  5
E11
  8
LAYER_1
 10
67.39881464322278
 20
-155.4656778689773
 30
0.0
  0
SEQEND
  5
EC7
  8
LAYER_1
  0
POLYLINE
  5
A2
  8
LAYER_1
 66
     1
 10
0.0
 20
0.0
 30
0.0
 70
     1
  0
VERTEX
  5
E12
  8
LAYER_1
 10
48.56562329218418
 20
-152.1945003183856
 30
0.0
  0
VERTEX
  5
E13
  8
LAYER_1
 10
45.23692548515115
 20
-153.276059798698
 30
0.0
  0
VERTEX
  5
E14
  8
LAYER_1
 10
48.32709542890063
 20
-162.7866249616495
 30
0.0
  0
VERTEX
  5
E15
  8
LAYER_1
 10
51.65579323593366
 20
-161.7050654813372
 30
0.0
  0
SEQEND
  5
EC8
  8
LAYER_1
  0
POLYLINE
  5
A3
  8
LAYER_1
 66
     1
 10
0.0
 20
0.0
 30
0.0
 70
     1
  0
VERTEX
  5
E16
  8
LAYER_1
 10
33.2677032401044
 20
-156.4832032332868
 30
0.0
  0
VERTEX
  5
E17
  8
LAYER_1
 10
29.84418663753607
 20
-157.210894151149
 30
0.0
  0
VERTEX
  5
E18
  8
LAYER_1
 10
31.92330354571367
 20
-166.9923701584871
 30
0.0
  0
VERTEX
  5
E19
  8
LAYER_1
 10
35.34682014828199
 20
-166.2646792406249
 30
0.0
  0
SEQEND
  5
EC9
  8
LAYER_1
  0
POLYLINE
  5
A4
  8
LAYER_1
 66
     1
 10
0.0
 20
0.0
 30
0.0
 70
     1
  0
VERTEX
  5
E1A
  8
LAYER_1
 10
17.60529526961161
 20
-159.1493441106505
 30
0.0
  0
VERTEX
  5
E1B
  8
LAYER_1
 10
14.12446863582266
 20
-159.5151937320873
 30
0.0
  0
VERTEX
  5
E1C
  8
LAYER_1
 10
15.16975326849919
 20
-169.4604126857701
 30
0.0
  0
VERTEX
  5
E1D
  8
LAYER_1
 10
18.65057990228815
 20
-169.0945630643333
 30
0.0
  0
SEQEND
  5
ECA
  8
LAYER_1
  0
POLYLINE
  5
A5
  8
LAYER_1
 66
     1
 10
0.0
 20
0.0
 30
0.0
 70
     1
  0
VERTEX
  5
E1E
  8
LAYER_1
 10
1.750000000000019
 20
-160.1637121530984
 30
0.0
  0
VERTEX
  5
E1F
  8
LAYER_1
 10
-1.749999999999981
 20
-160.1637121530984
 30
0.0
  0
VERTEX
  5
E20
  8
LAYER_1
 10
-1.74999999999998
 20
-170.1637121530984
 30
0.0
  0
VERTEX
  5
E21
  8
LAYER_1
 10
1.75000000000002
 20
-170.1637121530984
 30
0.0
  0
SEQEND
  5
ECB
  8
LAYER_1
  0
POLYLINE
  5
A6
  8
LAYER_1
 66
     1
 10
0.0
 20
0.0
 30
0.0
 70
     1
  0
VERTEX
  5
E22
  8
LAYER_1
 10
-14.12446863582255
 20
-159.5151937320873
 30
0.0
  0
VERTEX
  5
E23
  8
LAYER_1
 10
-17.60529526961151
 20
-159.1493441106506
 30
0.0
  0
VERTEX
  5
E24
  8
LAYER_1
 10
-18.65057990228804
 20
-169.0945630643333
 30
0.0
  0
VERTEX
  5
E25
  8
LAYER_1
 10
-15.16975326849908
 20
-169.4604126857701
 30
0.0
  0
SEQEND
  5
ECC
  8
LAYER_1
  0
POLYLINE
  5
A7
  8
LAYER_1
 66
     1
 10
0.0
 20
0.0
 30
0.0
 70
     1
  0
VERTEX
  5
E26
  8
LAYER_1
 10
-29.84418663753604
 20
-157.210894151149
 30
0.0
  0
VERTEX
  5
E27
  8
LAYER_1
 10
-33.26770324010435
 20
-156.4832032332868
 30
0.0
  0
VERTEX
  5
E28
  8
LAYER_1
 10
-35.34682014828194
 20
-166.2646792406249
 30
0.0
  0
VERTEX
  5
E29
  8
LAYER_1
 10
-31.92330354571363
 20
-166.9923701584871
 30
0.0
  0
SEQEND
  5
ECD
  8
LAYER_1
  0
POLYLINE
  5
A8
  8
LAYER_1
 66
     1
 10
0.0
 20
0.0
 30
0.0
 70
     1
  0
VERTEX
  5
E2A
  8
LAYER_1
 10
-45.23692548515118
 20
-153.276059798698
 30
0.0
  0
VERTEX
  5
E2B
  8
LAYER_1
 10
-48.56562329218422
 20
-152.1945003183856
 30
0.0
  0
VERTEX
  5
E2C
  8
LAYER_1
 10
-51.65579323593369
 20
-161.7050654813372
 30
0.0
  0
VERTEX
  5
E2D
  8
LAYER_1
 10
-48.32709542890066
 20
-162.7866249616495
 30
0.0
  0
SEQEND
  5
ECE
  8
LAYER_1
  0
POLYLINE
  5
A9
  8
LAYER_1
 66
     1
 10
0.0
 20
0.0
 30
0.0
 70
     1
  0
VERTEX
  5
E2E
  8
LAYER_1
 10
-60.13403911071558
 20
-147.7538015433166
 30
0.0
  0
VERTEX
  5
E2F
  8
LAYER_1
 10
-63.33144821246468
 20
-146.3302232925514
 30
0.0
  0
VERTEX
  5
E30
  8
LAYER_1
 10
-67.39881464322268
 20
-155.4656778689774
 30
0.0
  0
VERTEX
  5
E31
  8
LAYER_1
 10
-64.20140554147358
 20
-156.8892561197426
 30
0.0
  0
SEQEND
  5
ECF
  8
LAYER_1
  0
POLYLINE
  5
AA
  8
LAYER_1
 66
     1
 10
0.0
 20
0.0
 30
0.0
 70
     1
  0
VERTEX
  5
E32
  8
LAYER_1
 10
-74.37231161992646
 20
-140.7046224020578
 30
0.0
  0
VERTEX
  5
E33
  8
LAYER_1
 10
-77.40340053317199
 20
-138.9546224020578
 30
0.0
  0
VERTEX
  5
E34
  8
LAYER_1
 10
-82.40340053317199
 20
-147.6148764399022
 30
0.0
  0
VERTEX
  5
E35
  8
LAYER_1
 10
-79.37231161992646
 20
-149.3648764399022
 30
0.0
  0
SEQEND
  5
ED0
  8
LAYER_1
  0
POLYLINE
  5
AB
  8
LAYER_1
 66
     1
 10
0.0
 20
0.0
 30
0.0
 70
     1
  0
VERTEX
  5
E36
  8
LAYER_1
 10
-87.79574551962256
 20
-132.2057546567287
 30
0.0
  0
VERTEX
  5
E37
  8
LAYER_1
 10
-90.62730499993486
 20
-130.148506273705
 30
0.0
  0
VERTEX
  5
E38
  8
LAYER_1
 10
-96.5051575228596
 20
-138.2386762174545
 30
0.0
  0
VERTEX
  5
E39
  8
LAYER_1
 10
-93.6735980425473
 20
-140.2959246004782
 30
0.0
  0
SEQEND
  5
ED1
  8
LAYER_1
  0
POLYLINE
  5
AC
  8
LAYER_1
 66
     1
 10
0.0
 20
0.0
 30
0.0
 70
     1
  0
VERTEX
  5
E3A
  8
LAYER_1
 10
-100.2572708589648
 20
-122.3503136808496
 30
0.0
  0
VERTEX
  5
E3B
  8
LAYER_1
 10
-102.8582777481357
 20
-120.0083565585936
 30
0.0
  0
VERTEX
  5
E3C
  8
LAYER_1
 10
-109.5495838117243
 20
-127.4398048133675
 30
0.0
  0
VERTEX
  5
E3D
  8
LAYER_1
 10
-106.9485769225534
 20
-129.7817619356235
 30
0.0
  0
SEQEND
  5
ED2
  8
LAYER_1
  0
POLYLINE
  5
AD
  8
LAYER_1
 66
     1
 10
0.0
 20
0.0
 30
0.0
 70
     1
  0
VERTEX
  5
E3E
  8
LAYER_1
 10
-111.6203565585935
 20
-111.2462777481358
 30
0.0
  0
VERTEX
  5
E3F
  8
LAYER_1
 10
-113.9623136808495
 20
-108.6452708589649
 30
0.0
  0
VERTEX
  5
E40
  8
LAYER_1
 10
-121.3937619356235
 20
-115.3365769225534
 30
0.0
  0
VERTEX
  5
E41
  8
LAYER_1
 10
-119.0518048133675
 20
-117.9375838117243
 30
0.0
  0
SEQEND
  5
ED3
  8
LAYER_1
  0
POLYLINE
  5
AE
  8
LAYER_1
 66
     1
 10
0.0
 20
0.0
 30
0.0
 70
     1
  0
VERTEX
  5
E42
  8
LAYER_1
 10
-121.760506273705
 20
-99.01530499993491
 30
0.0
  0
VERTEX
  5
E43
  8
LAYER_1
 10
-123.8177546567287
 20
-96.1837455196226
 30
0.0
  0
VERTEX
  5
E44
  8
LAYER_1
 10
-131.9079246004781
 20
-102.0615980425473
 30
0.0
  0
VERTEX
  5
E45
  8
LAYER_1
 10
-129.8506762174545
 20
-104.8931575228596
 30
0.0
  0
SEQEND
  5
ED4
  8
LAYER_1
  0
POLYLINE
  5
AF
  8
LAYER_1
 66
     1
 10
0.0
 20
0.0
 30
0.0
 70
     1
  0
VERTEX
  5
E46
  8
LAYER_1
 10
-130.5666224020578
 20
-85.79140053317204
 30
0.0
  0
VERTEX
  5
E47
  8
LAYER_1
 10
-132.3166224020578
 20
-82.76031161992651
 30
0.0
  0
VERTEX
  5
E48
  8
LAYER_1
 10
-140.9768764399022
 20
-87.76031161992653
 30
0.0
  0
VERTEX
  5
E49
  8
LAYER_1
 10
-139.2268764399022
 20
-90.79140053317205
 30
0.0
  0
SEQEND
  5
ED5
  8
LAYER_1
  0
POLYLINE
  5
B0
  8
LAYER_1
 66
     1
 10
0.0
 20
0.0
 30
0.0
 70
     1
  0
VERTEX
  5
E4A
  8
LAYER_1
 10
-137.9422232925513
 20
-71.71944821246471
 30
0.0
  0
VERTEX
  5
E4B
  8
LAYER_1
 10
-139.3658015433166
 20
-68.52203911071561
 30
0.0
  0
VERTEX
  5
E4C
  8
LAYER_1
 10
-148.5012561197426
 20
-72.58940554147361
 30
0.0
  0
VERTEX
  5
E4D
  8
LAYER_1
 10
-147.0776778689773
 20
-75.78681464322271
 30
0.0
  0
SEQEND
  5
ED6
  8
LAYER_1
  0
POLYLINE
  5
B1
  8
LAYER_1
 66
     1
 10
0.0
 20
0.0
 30
0.0
 70
     1
  0
VERTEX
  5
E4E
  8
LAYER_1
 10
-143.8065003183856
 20
-56.95362329218419
 30
0.0
  0
VERTEX
  5
E4F
  8
LAYER_1
 10
-144.888059798698
 20
-53.62492548515115
 30
0.0
  0
VERTEX
  5
E50
  8
LAYER_1
 10
-154.3986249616495
 20
-56.71509542890063
 30
0.0
  0
VERTEX
  5
E51
  8
LAYER_1
 10
-153.3170654813372
 20
-60.04379323593367
 30
0.0
  0
SEQEND
  5
ED7
  8
LAYER_1
  0
POLYLINE
  5
B2
  8
LAYER_1
 66
     1
 10
0.0
 20
0.0
 30
0.0
 70
     1
  0
VERTEX
  5
E52
  8
LAYER_1
 10
-148.0952032332868
 20
-41.65570324010447
 30
0.0
  0
VERTEX
  5
E53
  8
LAYER_1
 10
-148.822894151149
 20
-38.23218663753615
 30
0.0
  0
VERTEX
  5
E54
  8
LAYER_1
 10
-158.604370158487
 20
-40.31130354571374
 30
0.0
  0
VERTEX
  5
E55
  8
LAYER_1
 10
-157.8766792406249
 20
-43.73482014828206
 30
0.0
  0
SEQEND
  5
ED8
  8
LAYER_1
  0
POLYLINE
  5
B3
  8
LAYER_1
 66
     1
 10
0.0
 20
0.0
 30
0.0
 70
     1
  0
VERTEX
  5
E56
  8
LAYER_1
 10
-150.7613441106506
 20
-25.99329526961156
 30
0.0
  0
VERTEX
  5
E57
  8
LAYER_1
 10
-151.1271937320873
 20
-22.5124686358226
 30
0.0
  0
VERTEX
  5
E58
  8
LAYER_1
 10
-161.07241268577
 20
-23.55775326849913
 30
0.0
  0
VERTEX
  5
E59
  8
LAYER_1
 10
-160.7065630643333
 20
-27.03857990228809
 30
0.0
  0
SEQEND
  5
ED9
  8
LAYER_1
  0
POLYLINE
  5
B4
  8
LAYER_1
 66
     1
 10
0.0
 20
0.0
 30
0.0
 70
     1
  0
VERTEX
  5
E5A
  8
LAYER_1
 10
-151.7757121530984
 20
-10.13800000000003
 30
0.0
  0
VERTEX
  5
E5B
  8
LAYER_1
 10
-151.7757121530984
 20
-6.638000000000028
 30
0.0
  0
VERTEX
  5
E5C
  8
LAYER_1
 10
-161.7757121530984
 20
-6.63800000000003
 30
0.0
  0
VERTEX
  5
E5D
  8
LAYER_1
 10
-161.7757121530984
 20
-10.13800000000003
 30
0.0
  0
SEQEND
  5
EDA
  8
LAYER_1
  0
POLYLINE
  5
B5
  8
LAYER_1
 66
     1
 10
0.0
 20
0.0
 30
0.0
 70
     1
  0
VERTEX
  5
E5E
  8
LAYER_1
 10
-151.1271937320873
 20
5.736468635822543
 30
0.0
  0
VERTEX
  5
E5F
  8
LAYER_1
 10
-150.7613441106506
 20
9.217295269611501
 30
0.0
  0
VERTEX
  5
E60
  8
LAYER_1
 10
-160.7065630643333
 20
10.26257990228803
 30
0.0
  0
VERTEX
  5
E61
  8
LAYER_1
 10
-161.07241268577
 20
6.781753268499073
 30
0.0
  0
SEQEND
  5
EDB
  8
LAYER_1
  0
POLYLINE
  5
B6
  8
LAYER_1
 66
     1
 10
0.0
 20
0.0
 30
0.0
 70
     1
  0
VERTEX
  5
E62
  8
LAYER_1
 10
-148.822894151149
 20
21.45618663753596
 30
0.0
  0
VERTEX
  5
E63
  8
LAYER_1
 10
-148.0952032332869
 20
24.87970324010428
 30
0.0
  0
VERTEX
  5
E64
  8
LAYER_1
 10
-157.8766792406249
 20
26.95882014828187
 30
0.0
  0
VERTEX
  5
E65
  8
LAYER_1
 10
-158.6043701584871
 20
23.53530354571355
 30
0.0
  0
SEQEND
  5
EDC
  8
LAYER_1
  0
POLYLINE
  5
B7
  8
LAYER_1
 66
     1
 10
0.0
 20
0.0
 30
0.0
 70
     1
  0
VERTEX
  5
E66
  8
LAYER_1
 10
-144.888059798698
 20
36.84892548515111
 30
0.0
  0
VERTEX
  5
E67
  8
LAYER_1
 10
-143.8065003183856
 20
40.17762329218414
 30
0.0
  0
VERTEX
  5
E68
  8
LAYER_1
 10
-153.3170654813372
 20
43.26779323593362
 30
0.0
  0
VERTEX
  5
E69
  8
LAYER_1
 10
-154.3986249616495
 20
39.93909542890058
 30
0.0
  0
SEQEND
  5
EDD
  8
LAYER_1
  0
POLYLINE
  5
B8
  8
LAYER_1
 66
     1
 10
0.0
 20
0.0
 30
0.0
 70
     1
  0
VERTEX
  5
E6A
  8
LAYER_1
 10
-139.3658015433166
 20
51.74603911071569
 30
0.0
  0
VERTEX
  5
E6B
  8
LAYER_1
 10
-137.9422232925513
 20
54.94344821246479
 30
0.0
  0
VERTEX
  5
E6C
  8
LAYER_1
 10
-147.0776778689773
 20
59.01081464322279
 30
0.0
  0
VERTEX
  5
E6D
  8
LAYER_1
 10
-148.5012561197426
 20
55.81340554147369
 30
0.0
  0
SEQEND
  5
EDE
  8
LAYER_1
  0
POLYLINE
  5
B9
  8
LAYER_1
 66
     1
 10
0.0
 20
0.0
 30
0.0
 70
     1
  0
VERTEX
  5
E6E
  8
LAYER_1
 10
-132.3166224020578
 20
65.98431161992646
 30
0.0
  0
VERTEX
  5
E6F
  8
LAYER_1
 10
-130.5666224020578
 20
69.01540053317198
 30
0.0
  0
VERTEX
  5
E70
  8
LAYER_1
 10
-139.2268764399022
 20
74.01540053317198
 30
0.0
  0
VERTEX
  5
E71
  8
LAYER_1
 10
-140.9768764399022
 20
70.98431161992646
 30
0.0
  0
SEQEND
  5
EDF
  8
LAYER_1
  0
POLYLINE
  5
BA
  8
LAYER_1
 66
     1
 10
0.0
 20
0.0
 30
0.0
 70
     1
  0
VERTEX
  5
E72
  8
LAYER_1
 10
-123.8177546567287
 20
79.40774551962255
 30
0.0
  0
VERTEX
  5
E73
  8
LAYER_1
 10
-121.7605062737051
 20
82.23930499993486
 30
0.0
  0
VERTEX
  5
E74
  8
LAYER_1
 10
-129.8506762174545
 20
88.11715752285959
 30
0.0
  0
VERTEX
  5
E75
  8
LAYER_1
 10
-131.9079246004782
 20
85.28559804254728
 30
0.0
  0
SEQEND
  5
EE0
  8
LAYER_1
  0
POLYLINE
  5
BB
  8
LAYER_1
 66
     1
 10
0.0
 20
0.0
 30
0.0
 70
     1
  0
VERTEX
  5
E76
  8
LAYER_1
 10
-113.9623136808496
 20
91.86927085896477
 30
0.0
  0
VERTEX
  5
E77
  8
LAYER_1
 10
-111.6203565585936
 20
94.47027774813566
 30
0.0
  0
VERTEX
  5
E78
  8
LAYER_1
 10
-119.0518048133676
 20
101.1615838117242
 30
0.0
  0
VERTEX
  5
E79
  8
LAYER_1
 10
-121.3937619356235
 20
98.56057692255335
 30
0.0
  0
SEQEND
  5
EE1
  8
LAYER_1
  0
POLYLINE
  5
BC
  8
LAYER_1
 66
     1
 10
0.0
 20
0.0
 30
0.0
 70
     1
  0
VERTEX
  5
E7A
  8
LAYER_1
 10
-102.8582777481357
 20
103.2323565585936
 30
0.0
  0
VERTEX
  5
E7B
  8
LAYER_1
 10
-100.2572708589648
 20
105.5743136808495
 30
0.0
  0
VERTEX
  5
E7C
  8
LAYER_1
 10
-106.9485769225534
 20
113.0057619356235
 30
0.0
  0
VERTEX
  5
E7D
  8
LAYER_1
 10
-109.5495838117243
 20
110.6638048133675
 30
0.0
  0
SEQEND
  5
EE2
  8
LAYER_1
  0
POLYLINE
  5
BD
  8
LAYER_1
 66
     1
 10
0.0
 20
0.0
 30
0.0
 70
     1
  0
VERTEX
  5
E7E
  8
LAYER_1
 10
-90.62730499993492
 20
113.372506273705
 30
0.0
  0
VERTEX
  5
E7F
  8
LAYER_1
 10
-87.79574551962261
 20
115.4297546567287
 30
0.0
  0
VERTEX
  5
E80
  8
LAYER_1
 10
-93.67359804254734
 20
123.5199246004781
 30
0.0
  0
VERTEX
  5
E81
  8
LAYER_1
 10
-96.50515752285965
 20
121.4626762174545
 30
0.0
  0
SEQEND
  5
EE3
  8
LAYER_1
  0
POLYLINE
  5
BE
  8
LAYER_1
 66
     1
 10
0.0
 20
0.0
 30
0.0
 70
     1
  0
VERTEX
  5
E82
  8
LAYER_1
 10
-77.40340053317203
 20
122.1786224020578
 30
0.0
  0
VERTEX
  5
E83
  8
LAYER_1
 10
-74.3723116199265
 20
123.9286224020578
 30
0.0
  0
VERTEX
  5
E84
  8
LAYER_1
 10
-79.37231161992652
 20
132.5888764399021
 30
0.0
  0
VERTEX
  5
E85
  8
LAYER_1
 10
-82.40340053317205
 20
130.8388764399021
 30
0.0
  0
SEQEND
  5
EE4
  8
LAYER_1
  0
POLYLINE
  5
BF
  8
LAYER_1
 66
     1
 10
0.0
 20
0.0
 30
0.0
 70
     1
  0
VERTEX
  5
E86
  8
LAYER_1
 10
-63.33144821246472
 20
129.5542232925513
 30
0.0
  0
VERTEX
  5
E87
  8
LAYER_1
 10
-60.13403911071562
 20
130.9778015433166
 30
0.0
  0
VERTEX
  5
E88
  8
LAYER_1
 10
-64.20140554147363
 20
140.1132561197426
 30
0.0
  0
VERTEX
  5
E89
  8
LAYER_1
 10
-67.39881464322274
 20
138.6896778689774
 30
0.0
  0
SEQEND
  5
EE5
  8
LAYER_1
  0
POLYLINE
  5
C0
  8
LAYER_1
 66
     1
 10
0.0
 20
0.0
 30
0.0
 70
     1
  0
VERTEX
  5
E8A
  8
LAYER_1
 10
-48.56562329218421
 20
135.4185003183856
 30
0.0
  0
VERTEX
  5
E8B
  8
LAYER_1
 10
-45.23692548515118
 20
136.5000597986979
 30
0.0
  0
VERTEX
  5
E8C
  8
LAYER_1
 10
-48.32709542890065
 20
146.0106249616495
 30
0.0
  0
VERTEX
  5
E8D
  8
LAYER_1
 10
-51.65579323593369
 20
144.9290654813372
 30
0.0
  0
SEQEND
  5
EE6
  8
LAYER_1
  0
POLYLINE
  5
C1
  8
LAYER_1
 66
     1
 10
0.0
 20
0.0
 30
0.0
 70
     1
  0
VERTEX
  5
E8E
  8
LAYER_1
 10
-33.26770324010447
 20
139.7072032332869
 30
0.0
  0
VERTEX
  5
E8F
  8
LAYER_1
 10
-29.84418663753616
 20
140.434894151149
 30
0.0
  0
VERTEX
  5
E90
  8
LAYER_1
 10
-31.92330354571376
 20
150.2163701584871
 30
0.0
  0
VERTEX
  5
E91
  8
LAYER_1
 10
-35.34682014828208
 20
149.4886792406249
 30
0.0
  0
SEQEND
  5
EE7
  8
LAYER_1
  0
POLYLINE
  5
C2
  8
LAYER_1
 66
     1
 10
0.0
 20
0.0
 30
0.0
 70
     1
  0
VERTEX
  5
E92
  8
LAYER_1
 10
-17.60529526961156
 20
142.3733441106505
 30
0.0
  0
VERTEX
  5
E93
  8
LAYER_1
 10
-14.12446863582261
 20
142.7391937320873
 30
0.0
  0
VERTEX
  5
E94
  8
LAYER_1
 10
-15.16975326849914
 20
152.68441268577
 30
0.0
  0
VERTEX
  5
E95
  8
LAYER_1
 10
-18.6505799022881
 20
152.3185630643333
 30
0.0
  0
SEQEND
  5
EE8
  8
LAYER_1
  0
ENDSEC
  0
EOF
