0
SECTION
2
HEADER
9
$INSUNITS
70
4
9
$ACADVER
1
AC1014
9
$HANDSEED
5
FFFF
0
ENDSEC
0
SECTION
2
TABLES
0
TABLE
2
VPORT
5
8
100
AcDbSymbolTable
0
ENDTAB
0
TABLE
2
LTYPE
5
5
100
AcDbSymbolTable
0
LTYPE
5
14
100
AcDbSymbolTableRecord
100
AcDbLinetypeTableRecord
2
BYBLOCK
70
0
0
LTYPE
5
15
100
AcDbSymbolTableRecord
100
AcDbLinetypeTableRecord
2
BYLAYER
70
0
0
ENDTAB
0
TABLE
2
LAYER
5
2
100
AcDbSymbolTable
70
2
0
LAYER
5
50
100
AcDbSymbolTableRecord
100
AcDbLayerTableRecord
2
0
70
0
6
CONTINUOUS
0
ENDTAB
0
TABLE
2
STYLE
5
3
100
AcDbSymbolTable
70
1
0
STYLE
5
11
100
AcDbSymbolTableRecord
100
AcDbTextStyleTableRecord
2
STANDARD
70
0
0
ENDTAB
0
TABLE
2
VIEW
5
6
100
AcDbSymbolTable
70
0
0
ENDTAB
0
TABLE
2
UCS
5
7
100
AcDbSymbolTable
70
0
0
ENDTAB
0
TABLE
2
APPID
5
9
100
AcDbSymbolTable
70
2
0
APPID
5
12
100
AcDbSymbolTableRecord
100
AcDbRegAppTableRecord
2
ACAD
70
0
0
ENDTAB
0
TABLE
2
DIMSTYLE
5
A
100
AcDbSymbolTable
70
1
0
ENDTAB
0
TABLE
2
BLOCK_RECORD
5
1
100
AcDbSymbolTable
70
1
0
BLOCK_RECORD
5
1F
100
AcDbSymbolTableRecord
100
AcDbBlockTableRecord
2
*MODEL_SPACE
0
BLOCK_RECORD
5
1B
100
AcDbSymbolTableRecord
100
AcDbBlockTableRecord
2
*PAPER_SPACE
0
ENDTAB
0
ENDSEC
0
SECTION
2
BLOCKS
0
BLOCK
5
20
100
AcDbEntity
100
AcDbBlockBegin
2
*MODEL_SPACE
0
ENDBLK
5
21
100
AcDbEntity
100
AcDbBlockEnd
0
BLOCK
5
1C
100
AcDbEntity
100
AcDbBlockBegin
2
*PAPER_SPACE
0
ENDBLK
5
1D
100
AcDbEntity
100
AcDbBlockEnd
0
ENDSEC
0
SECTION
2
ENTITIES
0
LWPOLYLINE
5
100
100
AcDbEntity
8
0
100
AcDbPolyline
90
9
70
1
43
0.0
10
1163.4206644341198
20
-175.60194902747199
10
1163.4206644341198
20
-51.396342992956718
10
823.42066443411966
20
-76.581528178141909
10
823.42066443411966
20
-291.122369876802
10
1163.4206644341198
20
-316.30755506198727
10
1163.4206644341198
20
-194.99010483586287
10
1163.4206644341198
20
-192.10194902747202
10
1188.4206644341198
20
-192.10194902747202
10
1188.4206644341198
20
-175.60194902747199
0
LWPOLYLINE
5
101
100
AcDbEntity
8
0
100
AcDbPolyline
90
4
70
1
43
0.0
10
-186.32061070196744
20
-247.92233913130818
10
-186.32061070196744
20
-231.42233913130826
10
-226.32061070196752
20
-231.42233913130826
10
-226.32061070196752
20
-247.92233913130818
0
LWPOLYLINE
5
102
100
AcDbEntity
8
0
100
AcDbPolyline
90
19
70
1
43
0.0
10
706.92066443411977
20
-293.85194902747202
10
706.92066443411977
20
-333.85194902747202
10
723.42066443411954
20
-333.85194902747202
10
1263.4206644341198
20
-373.85194902747202
10
1263.4206644341198
20
-323.71496246939478
10
1213.4206644341198
20
-320.01125876569085
10
1213.4206644341198
20
-47.692639289252995
10
1263.4206644341198
20
-43.988935585549285
10
1263.4206644341198
20
6.1480509725280541
10
723.42066443411954
20
-33.851949027471946
10
706.92066443411977
20
-33.851949027471946
10
706.92066443411977
20
-73.851949027471932
10
723.42066443411954
20
-73.851949027471932
10
723.42066443411954
20
-175.60194902747196
10
773.42066443411966
20
-175.60194902747196
10
773.42066443411966
20
-183.85194902747199
10
773.42066443411966
20
-192.10194902747202
10
723.42066443411954
20
-192.10194902747196
10
723.42066443411954
20
-293.85194902747202
0
LWPOLYLINE
5
103
100
AcDbEntity
8
0
100
AcDbPolyline
90
29
70
1
43
0.0
10
465
20
-198.25000000000003
10
465
20
-181.75000000000009
10
490
20
-181.75000000000009
10
490
20
-53.840690261781035
10
540
20
-50.136986558077353
10
540
20
0
10
0
20
-40
10
-16.5
20
-40
10
-16.5
20
-80
10
0
20
-80
10
0
20
-181.75
10
50
20
-181.75
10
100
20
-181.75
10
100
20
-82.729579150669963
10
440
20
-57.544393965484772
10
440
20
-201.13815580839088
10
440
20
-322.4556060345152
10
100
20
-297.27042084933004
10
100
20
-198.25000000000003
10
50
20
-198.25000000000003
10
0
20
-198.25000000000003
10
0
20
-300
10
-16.5
20
-300
10
-16.5
20
-340
10
0
20
-340
10
540
20
-380
10
540
20
-329.86301344192282
10
490
20
-326.15930973821895
10
490
20
-198.25000000000003
0
LINE
5
104
100
AcDbEntity
8
0
100
AcDbLine
10
823.42066443411966
20
-183.85194902747199
30
0
11
823.42066443411966
21
-76.581528178141909
31
0
0
LWPOLYLINE
5
105
100
AcDbEntity
8
0
100
AcDbPolyline
90
4
70
1
43
0.0
10
-328.07061070196744
20
-129.67233913130809
10
-328.07061070196744
20
-89.672339131308107
10
-344.5706107019675
20
-89.672339131308107
10
-344.5706107019675
20
-129.67233913130809
0
LWPOLYLINE
5
106
100
AcDbEntity
8
0
100
AcDbPolyline
90
4
70
1
43
0.0
10
-486.32061070196755
20
-231.42233913130815
10
-486.32061070196755
20
-247.92233913130815
10
-446.32061070196755
20
-247.92233913130815
10
-446.32061070196755
20
-231.42233913130815
0
LINE
5
107
100
AcDbEntity
8
0
100
AcDbLine
10
100
20
-181.75
30
0
11
100
21
-82.729579150669963
31
0
0
LWPOLYLINE
5
108
100
AcDbEntity
8
0
100
AcDbPolyline
90
4
70
1
43
0.0
10
-344.5706107019675
20
-349.67233913130821
10
-344.5706107019675
20
-389.67233913130826
10
-328.07061070196761
20
-389.67233913130826
10
-328.07061070196761
20
-349.67233913130821
0
CIRCLE
5
109
100
AcDbEntity
8
0
100
AcDbCircle
10
-336.3206107019675
20
-239.67233913130812
30
0
40
180
210
0
220
0
230
1
0
ENDSEC
0
SECTION
2
OBJECTS
0
DICTIONARY
5
C
100
AcDbDictionary
3
ACAD_GROUP
350
D
3
ACAD_MLINESTYLE
350
17
0
DICTIONARY
5
D
100
AcDbDictionary
0
DICTIONARY
5
1A
330
C
100
AcDbDictionary
0
DICTIONARY
5
17
100
AcDbDictionary
0
ENDSEC
0
EOF
