  0
SECTION
  2
HEADER
  9
$ACADVER
  1
AC1009
  9
$DWGCODEPAGE
  3
ansi_1252
  9
$INSBASE
 10
0.0
 20
0.0
 30
0.0
  9
$EXTMIN
 10
-396.2260769466549
 20
-71.44942389234079
 30
0.0
  9
$EXTMAX
 10
278.7186567582897
 20
285.2314326078007
 30
0.0
  9
$LIMMIN
 10
0.0
 20
0.0
  9
$LIMMAX
 10
12.0
 20
9.0
  9
$ORTHOMODE
 70
     0
  9
$REGENMODE
 70
     1
  9
$FILLMODE
 70
     1
  9
$QTEXTMODE
 70
     0
  9
$MIRRTEXT
 70
     1
  9
$DRAGMODE
 70
     2
  9
$LTSCALE
 40
1.0
  9
$OSMODE
 70
    37
  9
$ATTMODE
 70
     1
  9
$TEXTSIZE
 40
0.2
  9
$TRACEWID
 40
0.05
  9
$TEXTSTYLE
  7
STANDARD
  9
$CLAYER
  8
0
  9
$CELTYPE
  6
BYLAYER
  9
$CECOLOR
 62
   256
  9
$DIMSCALE
 40
1.0
  9
$DIMASZ
 40
0.18
  9
$DIMEXO
 40
0.0625
  9
$DIMDLI
 40
0.38
  9
$DIMRND
 40
0.0
  9
$DIMDLE
 40
0.0
  9
$DIMEXE
 40
0.18
  9
$DIMTP
 40
0.0
  9
$DIMTM
 40
0.0
  9
$DIMTXT
 40
0.18
  9
$DIMCEN
 40
0.09
  9
$DIMTSZ
 40
0.0
  9
$DIMTOL
 70
     0
  9
$DIMLIM
 70
     0
  9
$DIMTIH
 70
     1
  9
$DIMTOH
 70
     1
  9
$DIMSE1
 70
     0
  9
$DIMSE2
 70
     0
  9
$DIMTAD
 70
     0
  9
$DIMZIN
 70
     0
  9
$DIMBLK
  1

  9
$DIMASO
 70
     1
  9
$DIMSHO
 70
     1
  9
$DIMPOST
  1

  9
$DIMAPOST
  1

  9
$DIMALT
 70
     0
  9
$DIMALTD
 70
     2
  9
$DIMALTF
 40
25.4
  9
$DIMLFAC
 40
1.0
  9
$DIMTOFL
 70
     0
  9
$DIMTVP
 40
0.0
  9
$DIMTIX
 70
     0
  9
$DIMSOXD
 70
     0
  9
$DIMSAH
 70
     0
  9
$DIMBLK1
  1

  9
$DIMBLK2
  1

  9
$DIMSTYLE
  2
STANDARD
  9
$DIMCLRD
 70
     0
  9
$DIMCLRE
 70
     0
  9
$DIMCLRT
 70
     0
  9
$DIMTFAC
 40
1.0
  9
$DIMGAP
 40
0.09
  9
$LUNITS
 70
     2
  9
$LUPREC
 70
     4
  9
$SKETCHINC
 40
0.1
  9
$FILLETRAD
 40
0.0
  9
$AUNITS
 70
     0
  9
$AUPREC
 70
     0
  9
$MENU
  1
.
  9
$ELEVATION
 40
0.0
  9
$PELEVATION
 40
0.0
  9
$THICKNESS
 40
0.0
  9
$LIMCHECK
 70
     0
  9
$CHAMFERA
 40
0.0
  9
$CHAMFERB
 40
0.0
  9
$SKPOLY
 70
     0
  9
$TDCREATE
 40
2454910.5
  9
$TDUPDATE
 40
2459872.458947882
  9
$TDINDWG
 40
0.0000000116
  9
$TDUSRTIMER
 40
0.0000000116
  9
$USRTIMER
 70
     1
  9
$ANGBASE
 50
0.0
  9
$ANGDIR
 70
     0
  9
$PDMODE
 70
     0
  9
$PDSIZE
 40
0.0
  9
$PLINEWID
 40
0.0
  9
$COORDS
 70
     1
  9
$SPLFRAME
 70
     0
  9
$SPLINETYPE
 70
     6
  9
$SPLINESEGS
 70
     8
  9
$ATTDIA
 70
     0
  9
$ATTREQ
 70
     1
  9
$HANDLING
 70
     1
  9
$HANDSEED
  5
833
  9
$SURFTAB1
 70
     6
  9
$SURFTAB2
 70
     6
  9
$SURFTYPE
 70
     6
  9
$SURFU
 70
     6
  9
$SURFV
 70
     6
  9
$UCSNAME
  2

  9
$UCSORG
 10
0.0
 20
0.0
 30
0.0
  9
$UCSXDIR
 10
1.0
 20
0.0
 30
0.0
  9
$UCSYDIR
 10
0.0
 20
1.0
 30
0.0
  9
$PUCSNAME
  2

  9
$PUCSORG
 10
0.0
 20
0.0
 30
0.0
  9
$PUCSXDIR
 10
1.0
 20
0.0
 30
0.0
  9
$PUCSYDIR
 10
0.0
 20
1.0
 30
0.0
  9
$USERI1
 70
     0
  9
$USERI2
 70
     0
  9
$USERI3
 70
     0
  9
$USERI4
 70
     0
  9
$USERI5
 70
     0
  9
$USERR1
 40
0.0
  9
$USERR2
 40
0.0
  9
$USERR3
 40
0.0
  9
$USERR4
 40
0.0
  9
$USERR5
 40
0.0
  9
$WORLDVIEW
 70
     1
  9
$SHADEDGE
 70
     3
  9
$SHADEDIF
 70
    70
  9
$TILEMODE
 70
     1
  9
$MAXACTVP
 70
    64
  9
$PLIMCHECK
 70
     0
  9
$PEXTMIN
 10
1.000000000000000E+20
 20
1.000000000000000E+20
 30
1.000000000000000E+20
  9
$PEXTMAX
 10
-1.000000000000000E+20
 20
-1.000000000000000E+20
 30
-1.000000000000000E+20
  9
$PLIMMIN
 10
0.0
 20
0.0
  9
$PLIMMAX
 10
12.0
 20
9.0
  9
$UNITMODE
 70
     0
  9
$VISRETAIN
 70
     1
  9
$PLINEGEN
 70
     0
  9
$PSLTSCALE
 70
     1
  0
ENDSEC
  0
SECTION
  2
TABLES
  0
TABLE
  2
VPORT
 70
     1
  0
VPORT
  2
*ACTIVE
 70
     0
 10
0.0
 20
0.0
 11
1.0
 21
1.0
 12
10.42990654205607
 22
4.5
 13
0.0
 23
0.0
 14
0.5
 24
0.5
 15
0.5
 25
0.5
 16
0.0
 26
0.0
 36
1.0
 17
0.0
 27
0.0
 37
0.0
 40
9.0
 41
1.972972972850329
 42
50.0
 43
0.0
 44
0.0
 50
0.0
 51
0.0
 71
     0
 72
   100
 73
     1
 74
     3
 75
     0
 76
     0
 77
     0
 78
     0
  0
ENDTAB
  0
TABLE
  2
LTYPE
 70
     2
  0
LTYPE
  2
CONTINUOUS
 70
     0
  3
Solid line
 72
    65
 73
     0
 40
0.0
  0
LTYPE
  2
CONTINUOUS2
 70
     0
  3
Solid Line
 72
    65
 73
     0
 40
0.0
  0
ENDTAB
  0
TABLE
  2
LAYER
 70
     2
  0
LAYER
  2
0
 70
     0
 62
     7
  6
CONTINUOUS
  0
LAYER
  2
LAYER_1
 70
     0
 62
     7
  6
CONTINUOUS
  0
ENDTAB
  0
TABLE
  2
STYLE
 70
     1
  0
STYLE
  2
STANDARD
 70
     0
 40
0.0
 41
1.0
 50
0.0
 71
     0
 42
0.2
  3
txt
  4

  0
ENDTAB
  0
TABLE
  2
VIEW
 70
     0
  0
ENDTAB
  0
TABLE
  2
UCS
 70
     0
  0
ENDTAB
  0
TABLE
  2
APPID
 70
     1
  0
APPID
  2
ACAD
 70
     0
  0
ENDTAB
  0
TABLE
  2
DIMSTYLE
 70
     1
  0
DIMSTYLE
  2
STANDARD
 70
     0
  3

  4

  5

  6

  7

 40
1.0
 41
0.18
 42
0.0625
 43
0.38
 44
0.18
 45
0.0
 46
0.0
 47
0.0
 48
0.0
140
0.18
141
0.09
142
0.0
143
25.4
144
1.0
145
0.0
146
1.0
147
0.09
 71
     0
 72
     0
 73
     1
 74
     1
 75
     0
 76
     0
 77
     0
 78
     0
170
     0
171
     2
172
     0
173
     0
174
     0
175
     0
176
     0
177
     0
178
     0
  0
ENDTAB
  0
ENDSEC
  0
SECTION
  2
BLOCKS
  0
BLOCK
  8
0
  2
$MODEL_SPACE
 70
     0
 10
0.0
 20
0.0
 30
0.0
  3
$MODEL_SPACE
  1

  0
ENDBLK
  5
21
  8
0
  0
BLOCK
 67
     1
  8
0
  2
$PAPER_SPACE
 70
     0
 10
0.0
 20
0.0
 30
0.0
  3
$PAPER_SPACE
  1

  0
ENDBLK
  5
1D
 67
     1
  8
0
  0
ENDSEC
  0
SECTION
  2
ENTITIES
  0
POLYLINE
  5
60
  8
LAYER_1
 66
     1
 10
0.0
 20
0.0
 30
0.0
 70
     1
  0
VERTEX
  5
75
  8
LAYER_1
 10
208.7168555070888
 20
257.6978868345919
 30
0.0
  0
VERTEX
  5
76
  8
LAYER_1
 10
207.1682285273597
 20
257.6848225367584
 30
0.0
  0
VERTEX
  5
77
  8
LAYER_1
 10
205.6292634652879
 20
257.6458390828027
 30
0.0
  0
VERTEX
  5
78
  8
LAYER_1
 10
204.1004315598498
 20
257.5812506320424
 30
0.0
  0
VERTEX
  5
79
  8
LAYER_1
 10
202.5822040500216
 20
257.4913713437949
 30
0.0
  0
VERTEX
  5
7A
  8
LAYER_1
 10
201.0750521747794
 20
257.3765153773778
 30
0.0
  0
VERTEX
  5
7B
  8
LAYER_1
 10
199.5794471730996
 20
257.2369968921084
 30
0.0
  0
VERTEX
  5
7C
  8
LAYER_1
 10
198.0958602839582
 20
257.0731300473043
 30
0.0
  0
VERTEX
  5
7D
  8
LAYER_1
 10
196.6247627463317
 20
256.885229002283
 30
0.0
  0
VERTEX
  5
7E
  8
LAYER_1
 10
195.1666257991961
 20
256.673607916362
 30
0.0
  0
VERTEX
  5
7F
  8
LAYER_1
 10
193.7219206815277
 20
256.4385809488587
 30
0.0
  0
VERTEX
  5
80
  8
LAYER_1
 10
192.2911186323027
 20
256.1804622590906
 30
0.0
  0
VERTEX
  5
81
  8
LAYER_1
 10
190.8746908904973
 20
255.8995660063752
 30
0.0
  0
VERTEX
  5
82
  8
LAYER_1
 10
189.4731086950878
 20
255.59620635003
 30
0.0
  0
VERTEX
  5
83
  8
LAYER_1
 10
188.0868432850504
 20
255.2706974493724
 30
0.0
  0
VERTEX
  5
84
  8
LAYER_1
 10
186.7163658993613
 20
254.92335346372
 30
0.0
  0
VERTEX
  5
85
  8
LAYER_1
 10
185.3621477769967
 20
254.5544885523902
 30
0.0
  0
VERTEX
  5
86
  8
LAYER_1
 10
184.0246601569328
 20
254.1644168747005
 30
0.0
  0
VERTEX
  5
87
  8
LAYER_1
 10
182.704374278146
 20
253.7534525899683
 30
0.0
  0
VERTEX
  5
88
  8
LAYER_1
 10
181.4017613796123
 20
253.3219098575113
 30
0.0
  0
VERTEX
  5
89
  8
LAYER_1
 10
180.117292700308
 20
252.8701028366467
 30
0.0
  0
VERTEX
  5
8A
  8
LAYER_1
 10
178.8514394792094
 20
252.3983456866922
 30
0.0
  0
VERTEX
  5
8B
  8
LAYER_1
 10
177.6046729552926
 20
251.9069525669652
 30
0.0
  0
VERTEX
  5
8C
  8
LAYER_1
 10
176.3774643675339
 20
251.3962376367832
 30
0.0
  0
VERTEX
  5
8D
  8
LAYER_1
 10
175.1702849549095
 20
250.8665150554637
 30
0.0
  0
VERTEX
  5
8E
  8
LAYER_1
 10
173.9836059563956
 20
250.318098982324
 30
0.0
  0
VERTEX
  5
8F
  8
LAYER_1
 10
172.8178986109685
 20
249.7513035766819
 30
0.0
  0
VERTEX
  5
90
  8
LAYER_1
 10
171.6736341576043
 20
249.1664429978547
 30
0.0
  0
VERTEX
  5
91
  8
LAYER_1
 10
170.5512838352794
 20
248.5638314051598
 30
0.0
  0
VERTEX
  5
92
  8
LAYER_1
 10
169.4513188829698
 20
247.9437829579148
 30
0.0
  0
VERTEX
  5
93
  8
LAYER_1
 10
168.3742105396519
 20
247.3066118154372
 30
0.0
  0
VERTEX
  5
94
  8
LAYER_1
 10
167.3204300443018
 20
246.6526321370445
 30
0.0
  0
VERTEX
  5
95
  8
LAYER_1
 10
166.2904486358958
 20
245.982158082054
 30
0.0
  0
VERTEX
  5
96
  8
LAYER_1
 10
165.2847375534101
 20
245.2955038097833
 30
0.0
  0
VERTEX
  5
97
  8
LAYER_1
 10
164.3037680358209
 20
244.5929834795499
 30
0.0
  0
VERTEX
  5
98
  8
LAYER_1
 10
163.3480113221045
 20
243.8749112506713
 30
0.0
  0
VERTEX
  5
99
  8
LAYER_1
 10
162.417938651237
 20
243.1416012824649
 30
0.0
  0
VERTEX
  5
9A
  8
LAYER_1
 10
161.5140212621947
 20
242.3933677342483
 30
0.0
  0
VERTEX
  5
9B
  8
LAYER_1
 10
160.6367303939539
 20
241.6305247653388
 30
0.0
  0
VERTEX
  5
9C
  8
LAYER_1
 10
159.7865372854906
 20
240.853386535054
 30
0.0
  0
VERTEX
  5
9D
  8
LAYER_1
 10
158.9639131757812
 20
240.0622672027115
 30
0.0
  0
VERTEX
  5
9E
  8
LAYER_1
 10
158.1693293038019
 20
239.2574809276285
 30
0.0
  0
VERTEX
  5
9F
  8
LAYER_1
 10
157.7826997191411
 20
238.8500608613462
 30
0.0
  0
VERTEX
  5
A0
  8
LAYER_1
 10
157.4032569085289
 20
238.4393418691228
 30
0.0
  0
VERTEX
  5
A1
  8
LAYER_1
 10
157.0310597768373
 20
238.025363220873
 30
0.0
  0
VERTEX
  5
A2
  8
LAYER_1
 10
156.6661672289384
 20
237.6081641865115
 30
0.0
  0
VERTEX
  5
A3
  8
LAYER_1
 10
156.3086381697041
 20
237.1877840359531
 30
0.0
  0
VERTEX
  5
A4
  8
LAYER_1
 10
155.9585315040066
 20
236.7642620391125
 30
0.0
  0
VERTEX
  5
A5
  8
LAYER_1
 10
155.6159061367178
 20
236.3376374659042
 30
0.0
  0
VERTEX
  5
A6
  8
LAYER_1
 10
155.2808209727098
 20
235.9079495862429
 30
0.0
  0
VERTEX
  5
A7
  8
LAYER_1
 10
154.9533349168545
 20
235.4752376700435
 30
0.0
  0
VERTEX
  5
A8
  8
LAYER_1
 10
154.6335068740242
 20
235.0395409872205
 30
0.0
  0
VERTEX
  5
A9
  8
LAYER_1
 10
154.3213957490906
 20
234.6008988076886
 30
0.0
  0
VERTEX
  5
AA
  8
LAYER_1
 10
154.017060446926
 20
234.1593504013626
 30
0.0
  0
VERTEX
  5
AB
  8
LAYER_1
 10
153.7205598724022
 20
233.714935038157
 30
0.0
  0
VERTEX
  5
AC
  8
LAYER_1
 10
153.4319529303914
 20
233.2676919879867
 30
0.0
  0
VERTEX
  5
AD
  8
LAYER_1
 10
153.1512985257656
 20
232.8176605207662
 30
0.0
  0
VERTEX
  5
AE
  8
LAYER_1
 10
152.8786555633966
 20
232.3648799064103
 30
0.0
  0
VERTEX
  5
AF
  8
LAYER_1
 10
152.6140829481568
 20
231.9093894148336
 30
0.0
  0
VERTEX
  5
B0
  8
LAYER_1
 10
152.357639584918
 20
231.4512283159509
 30
0.0
  0
VERTEX
  5
B1
  8
LAYER_1
 10
152.1093843785522
 20
230.9904358796767
 30
0.0
  0
VERTEX
  5
B2
  8
LAYER_1
 10
151.8693762339316
 20
230.5270513759259
 30
0.0
  0
VERTEX
  5
B3
  8
LAYER_1
 10
151.6376740559281
 20
230.0611140746131
 30
0.0
  0
VERTEX
  5
B4
  8
LAYER_1
 10
151.4143367494138
 20
229.5926632456529
 30
0.0
  0
VERTEX
  5
B5
  8
LAYER_1
 10
151.1994232192606
 20
229.1217381589601
 30
0.0
  0
VERTEX
  5
B6
  8
LAYER_1
 10
150.9929923703407
 20
228.6483780844493
 30
0.0
  0
VERTEX
  5
B7
  8
LAYER_1
 10
150.795103107526
 20
228.1726222920353
 30
0.0
  0
VERTEX
  5
B8
  8
LAYER_1
 10
150.6058143356885
 20
227.6945100516327
 30
0.0
  0
VERTEX
  5
B9
  8
LAYER_1
 10
150.4251849597004
 20
227.2140806331562
 30
0.0
  0
VERTEX
  5
BA
  8
LAYER_1
 10
150.2532738844336
 20
226.7313733065205
 30
0.0
  0
VERTEX
  5
BB
  8
LAYER_1
 10
150.0901400147601
 20
226.2464273416402
 30
0.0
  0
VERTEX
  5
BC
  8
LAYER_1
 10
149.935842255552
 20
225.75928200843
 30
0.0
  0
VERTEX
  5
BD
  8
LAYER_1
 10
149.7904395116813
 20
225.2699765768048
 30
0.0
  0
VERTEX
  5
BE
  8
LAYER_1
 10
149.6539906880201
 20
224.778550316679
 30
0.0
  0
VERTEX
  5
BF
  8
LAYER_1
 10
149.5265546894403
 20
224.2850424979674
 30
0.0
  0
VERTEX
  5
C0
  8
LAYER_1
 10
149.408190420814
 20
223.7894923905848
 30
0.0
  0
VERTEX
  5
C1
  8
LAYER_1
 10
149.2989567870132
 20
223.2919392644457
 30
0.0
  0
VERTEX
  5
C2
  8
LAYER_1
 10
149.19891269291
 20
222.7924223894649
 30
0.0
  0
VERTEX
  5
C3
  8
LAYER_1
 10
149.1081170433764
 20
222.290981035557
 30
0.0
  0
VERTEX
  5
C4
  8
LAYER_1
 10
149.0266287432843
 20
221.7876544726368
 30
0.0
  0
VERTEX
  5
C5
  8
LAYER_1
 10
148.9545066975058
 20
221.2824819706189
 30
0.0
  0
VERTEX
  5
C6
  8
LAYER_1
 10
148.8918098109131
 20
220.7755027994179
 30
0.0
  0
VERTEX
  5
C7
  8
LAYER_1
 10
148.838596988378
 20
220.2667562289487
 30
0.0
  0
VERTEX
  5
C8
  8
LAYER_1
 10
148.7949271347726
 20
219.7562815291259
 30
0.0
  0
VERTEX
  5
C9
  8
LAYER_1
 10
148.760859154969
 20
219.2441179698641
 30
0.0
  0
VERTEX
  5
CA
  8
LAYER_1
 10
148.7364519538391
 20
218.7303048210781
 30
0.0
  0
VERTEX
  5
CB
  8
LAYER_1
 10
148.721764436255
 20
218.2148813526824
 30
0.0
  0
VERTEX
  5
CC
  8
LAYER_1
 10
148.7168555070888
 20
217.6978868345919
 30
0.0
  0
VERTEX
  5
CD
  8
LAYER_1
 10
148.721764436255
 20
217.1808923165015
 30
0.0
  0
VERTEX
  5
CE
  8
LAYER_1
 10
148.7364519538391
 20
216.6654688481058
 30
0.0
  0
VERTEX
  5
CF
  8
LAYER_1
 10
148.760859154969
 20
216.1516556993198
 30
0.0
  0
VERTEX
  5
D0
  8
LAYER_1
 10
148.7949271347726
 20
215.639492140058
 30
0.0
  0
VERTEX
  5
D1
  8
LAYER_1
 10
148.838596988378
 20
215.1290174402351
 30
0.0
  0
VERTEX
  5
D2
  8
LAYER_1
 10
148.8918098109131
 20
214.6202708697659
 30
0.0
  0
VERTEX
  5
D3
  8
LAYER_1
 10
148.9545066975058
 20
214.113291698565
 30
0.0
  0
VERTEX
  5
D4
  8
LAYER_1
 10
149.0266287432843
 20
213.6081191965471
 30
0.0
  0
VERTEX
  5
D5
  8
LAYER_1
 10
149.1081170433764
 20
213.1047926336269
 30
0.0
  0
VERTEX
  5
D6
  8
LAYER_1
 10
149.19891269291
 20
212.603351279719
 30
0.0
  0
VERTEX
  5
D7
  8
LAYER_1
 10
149.2989567870132
 20
212.1038344047382
 30
0.0
  0
VERTEX
  5
D8
  8
LAYER_1
 10
149.408190420814
 20
211.6062812785991
 30
0.0
  0
VERTEX
  5
D9
  8
LAYER_1
 10
149.5265546894403
 20
211.1107311712165
 30
0.0
  0
VERTEX
  5
DA
  8
LAYER_1
 10
149.6539906880201
 20
210.6172233525049
 30
0.0
  0
VERTEX
  5
DB
  8
LAYER_1
 10
149.7904395116813
 20
210.1257970923791
 30
0.0
  0
VERTEX
  5
DC
  8
LAYER_1
 10
149.935842255552
 20
209.6364916607538
 30
0.0
  0
VERTEX
  5
DD
  8
LAYER_1
 10
150.0901400147601
 20
209.1493463275437
 30
0.0
  0
VERTEX
  5
DE
  8
LAYER_1
 10
150.2532738844336
 20
208.6644003626634
 30
0.0
  0
VERTEX
  5
DF
  8
LAYER_1
 10
150.4251849597004
 20
208.1816930360277
 30
0.0
  0
VERTEX
  5
E0
  8
LAYER_1
 10
150.6058143356885
 20
207.7012636175512
 30
0.0
  0
VERTEX
  5
E1
  8
LAYER_1
 10
150.795103107526
 20
207.2231513771486
 30
0.0
  0
VERTEX
  5
E2
  8
LAYER_1
 10
150.9929923703407
 20
206.7473955847345
 30
0.0
  0
VERTEX
  5
E3
  8
LAYER_1
 10
151.1994232192606
 20
206.2740355102238
 30
0.0
  0
VERTEX
  5
E4
  8
LAYER_1
 10
151.4143367494138
 20
205.8031104235309
 30
0.0
  0
VERTEX
  5
E5
  8
LAYER_1
 10
151.6376740559281
 20
205.3346595945708
 30
0.0
  0
VERTEX
  5
E6
  8
LAYER_1
 10
151.8693762339316
 20
204.868722293258
 30
0.0
  0
VERTEX
  5
E7
  8
LAYER_1
 10
152.1093843785522
 20
204.4053377895071
 30
0.0
  0
VERTEX
  5
E8
  8
LAYER_1
 10
152.357639584918
 20
203.944545353233
 30
0.0
  0
VERTEX
  5
E9
  8
LAYER_1
 10
152.6140829481568
 20
203.4863842543502
 30
0.0
  0
VERTEX
  5
EA
  8
LAYER_1
 10
152.8786555633966
 20
203.0308937627736
 30
0.0
  0
VERTEX
  5
EB
  8
LAYER_1
 10
153.1512985257656
 20
202.5781131484177
 30
0.0
  0
VERTEX
  5
EC
  8
LAYER_1
 10
153.4319529303914
 20
202.1280816811972
 30
0.0
  0
VERTEX
  5
ED
  8
LAYER_1
 10
153.7205598724022
 20
201.6808386310269
 30
0.0
  0
VERTEX
  5
EE
  8
LAYER_1
 10
154.017060446926
 20
201.2364232678213
 30
0.0
  0
VERTEX
  5
EF
  8
LAYER_1
 10
154.3213957490906
 20
200.7948748614953
 30
0.0
  0
VERTEX
  5
F0
  8
LAYER_1
 10
154.6335068740242
 20
200.3562326819634
 30
0.0
  0
VERTEX
  5
F1
  8
LAYER_1
 10
154.9533349168545
 20
199.9205359991404
 30
0.0
  0
VERTEX
  5
F2
  8
LAYER_1
 10
155.2808209727098
 20
199.4878240829409
 30
0.0
  0
VERTEX
  5
F3
  8
LAYER_1
 10
155.6159061367178
 20
199.0581362032797
 30
0.0
  0
VERTEX
  5
F4
  8
LAYER_1
 10
155.9585315040066
 20
198.6315116300714
 30
0.0
  0
VERTEX
  5
F5
  8
LAYER_1
 10
156.3086381697041
 20
198.2079896332307
 30
0.0
  0
VERTEX
  5
F6
  8
LAYER_1
 10
156.6661672289384
 20
197.7876094826723
 30
0.0
  0
VERTEX
  5
F7
  8
LAYER_1
 10
157.0310597768373
 20
197.3704104483109
 30
0.0
  0
VERTEX
  5
F8
  8
LAYER_1
 10
157.4032569085289
 20
196.9564318000611
 30
0.0
  0
VERTEX
  5
F9
  8
LAYER_1
 10
158.1693293038019
 20
196.1382927415553
 30
0.0
  0
VERTEX
  5
FA
  8
LAYER_1
 10
158.9639131757812
 20
195.3335064664724
 30
0.0
  0
VERTEX
  5
FB
  8
LAYER_1
 10
159.7865372854906
 20
194.5423871341299
 30
0.0
  0
VERTEX
  5
FC
  8
LAYER_1
 10
160.6367303939539
 20
193.7652489038451
 30
0.0
  0
VERTEX
  5
FD
  8
LAYER_1
 10
161.5140212621947
 20
193.0024059349356
 30
0.0
  0
VERTEX
  5
FE
  8
LAYER_1
 10
162.417938651237
 20
192.254172386719
 30
0.0
  0
VERTEX
  5
FF
  8
LAYER_1
 10
163.3480113221045
 20
191.5208624185126
 30
0.0
  0
VERTEX
  5
100
  8
LAYER_1
 10
164.3037680358209
 20
190.802790189634
 30
0.0
  0
VERTEX
  5
101
  8
LAYER_1
 10
165.2847375534101
 20
190.1002698594006
 30
0.0
  0
VERTEX
  5
102
  8
LAYER_1
 10
166.2904486358958
 20
189.4136155871299
 30
0.0
  0
VERTEX
  5
103
  8
LAYER_1
 10
167.3204300443018
 20
188.7431415321394
 30
0.0
  0
VERTEX
  5
104
  8
LAYER_1
 10
168.3742105396519
 20
188.0891618537466
 30
0.0
  0
VERTEX
  5
105
  8
LAYER_1
 10
169.4513188829698
 20
187.451990711269
 30
0.0
  0
VERTEX
  5
106
  8
LAYER_1
 10
170.5512838352794
 20
186.8319422640241
 30
0.0
  0
VERTEX
  5
107
  8
LAYER_1
 10
171.6736341576043
 20
186.2293306713292
 30
0.0
  0
VERTEX
  5
108
  8
LAYER_1
 10
172.8178986109685
 20
185.644470092502
 30
0.0
  0
VERTEX
  5
109
  8
LAYER_1
 10
173.9836059563956
 20
185.0776746868598
 30
0.0
  0
VERTEX
  5
10A
  8
LAYER_1
 10
175.1702849549095
 20
184.5292586137202
 30
0.0
  0
VERTEX
  5
10B
  8
LAYER_1
 10
176.3774643675339
 20
183.9995360324007
 30
0.0
  0
VERTEX
  5
10C
  8
LAYER_1
 10
177.6046729552926
 20
183.4888211022187
 30
0.0
  0
VERTEX
  5
10D
  8
LAYER_1
 10
178.8514394792094
 20
182.9974279824917
 30
0.0
  0
VERTEX
  5
10E
  8
LAYER_1
 10
180.117292700308
 20
182.5256708325372
 30
0.0
  0
VERTEX
  5
10F
  8
LAYER_1
 10
181.4017613796123
 20
182.0738638116726
 30
0.0
  0
VERTEX
  5
110
  8
LAYER_1
 10
182.704374278146
 20
181.6423210792155
 30
0.0
  0
VERTEX
  5
111
  8
LAYER_1
 10
184.0246601569328
 20
181.2313567944834
 30
0.0
  0
VERTEX
  5
112
  8
LAYER_1
 10
185.3621477769967
 20
180.8412851167937
 30
0.0
  0
VERTEX
  5
113
  8
LAYER_1
 10
186.7163658993613
 20
180.4724202054639
 30
0.0
  0
VERTEX
  5
114
  8
LAYER_1
 10
188.0868432850504
 20
180.1250762198114
 30
0.0
  0
VERTEX
  5
115
  8
LAYER_1
 10
189.4731086950878
 20
179.7995673191538
 30
0.0
  0
VERTEX
  5
116
  8
LAYER_1
 10
190.8746908904973
 20
179.4962076628086
 30
0.0
  0
VERTEX
  5
117
  8
LAYER_1
 10
192.2911186323027
 20
179.2153114100932
 30
0.0
  0
VERTEX
  5
118
  8
LAYER_1
 10
193.7219206815277
 20
178.9571927203251
 30
0.0
  0
VERTEX
  5
119
  8
LAYER_1
 10
195.1666257991961
 20
178.7221657528218
 30
0.0
  0
VERTEX
  5
11A
  8
LAYER_1
 10
196.6247627463317
 20
178.5105446669008
 30
0.0
  0
VERTEX
  5
11B
  8
LAYER_1
 10
198.0958602839582
 20
178.3226436218795
 30
0.0
  0
VERTEX
  5
11C
  8
LAYER_1
 10
199.5794471730996
 20
178.1587767770754
 30
0.0
  0
VERTEX
  5
11D
  8
LAYER_1
 10
201.0750521747794
 20
178.0192582918061
 30
0.0
  0
VERTEX
  5
11E
  8
LAYER_1
 10
202.5822040500216
 20
177.904402325389
 30
0.0
  0
VERTEX
  5
11F
  8
LAYER_1
 10
204.1004315598498
 20
177.8145230371415
 30
0.0
  0
VERTEX
  5
120
  8
LAYER_1
 10
205.6292634652879
 20
177.7499345863812
 30
0.0
  0
VERTEX
  5
121
  8
LAYER_1
 10
207.1682285273597
 20
177.7109511324255
 30
0.0
  0
VERTEX
  5
122
  8
LAYER_1
 10
208.7168555070888
 20
177.6978868345919
 30
0.0
  0
VERTEX
  5
123
  8
LAYER_1
 10
210.2654824868179
 20
177.7109511324255
 30
0.0
  0
VERTEX
  5
124
  8
LAYER_1
 10
211.8044475488897
 20
177.7499345863812
 30
0.0
  0
VERTEX
  5
125
  8
LAYER_1
 10
213.3332794543278
 20
177.8145230371415
 30
0.0
  0
VERTEX
  5
126
  8
LAYER_1
 10
214.851506964156
 20
177.904402325389
 30
0.0
  0
VERTEX
  5
127
  8
LAYER_1
 10
216.3586588393982
 20
178.0192582918061
 30
0.0
  0
VERTEX
  5
128
  8
LAYER_1
 10
217.8542638410781
 20
178.1587767770754
 30
0.0
  0
VERTEX
  5
129
  8
LAYER_1
 10
219.3378507302194
 20
178.3226436218795
 30
0.0
  0
VERTEX
  5
12A
  8
LAYER_1
 10
220.8089482678459
 20
178.5105446669008
 30
0.0
  0
VERTEX
  5
12B
  8
LAYER_1
 10
222.2670852149815
 20
178.7221657528218
 30
0.0
  0
VERTEX
  5
12C
  8
LAYER_1
 10
223.7117903326499
 20
178.9571927203251
 30
0.0
  0
VERTEX
  5
12D
  8
LAYER_1
 10
225.1425923818749
 20
179.2153114100932
 30
0.0
  0
VERTEX
  5
12E
  8
LAYER_1
 10
226.5590201236803
 20
179.4962076628086
 30
0.0
  0
VERTEX
  5
12F
  8
LAYER_1
 10
227.9606023190898
 20
179.7995673191538
 30
0.0
  0
VERTEX
  5
130
  8
LAYER_1
 10
229.3468677291272
 20
180.1250762198114
 30
0.0
  0
VERTEX
  5
131
  8
LAYER_1
 10
230.7173451148163
 20
180.4724202054639
 30
0.0
  0
VERTEX
  5
132
  8
LAYER_1
 10
232.0715632371809
 20
180.8412851167937
 30
0.0
  0
VERTEX
  5
133
  8
LAYER_1
 10
233.4090508572448
 20
181.2313567944834
 30
0.0
  0
VERTEX
  5
134
  8
LAYER_1
 10
234.7293367360317
 20
181.6423210792155
 30
0.0
  0
VERTEX
  5
135
  8
LAYER_1
 10
236.0319496345653
 20
182.0738638116726
 30
0.0
  0
VERTEX
  5
136
  8
LAYER_1
 10
237.3164183138696
 20
182.5256708325372
 30
0.0
  0
VERTEX
  5
137
  8
LAYER_1
 10
238.5822715349682
 20
182.9974279824917
 30
0.0
  0
VERTEX
  5
138
  8
LAYER_1
 10
239.829038058885
 20
183.4888211022187
 30
0.0
  0
VERTEX
  5
139
  8
LAYER_1
 10
241.0562466466437
 20
183.9995360324007
 30
0.0
  0
VERTEX
  5
13A
  8
LAYER_1
 10
242.2634260592681
 20
184.5292586137202
 30
0.0
  0
VERTEX
  5
13B
  8
LAYER_1
 10
243.450105057782
 20
185.0776746868598
 30
0.0
  0
VERTEX
  5
13C
  8
LAYER_1
 10
244.6158124032091
 20
185.644470092502
 30
0.0
  0
VERTEX
  5
13D
  8
LAYER_1
 10
245.7600768565733
 20
186.2293306713292
 30
0.0
  0
VERTEX
  5
13E
  8
LAYER_1
 10
246.8824271788982
 20
186.8319422640241
 30
0.0
  0
VERTEX
  5
13F
  8
LAYER_1
 10
247.9823921312078
 20
187.451990711269
 30
0.0
  0
VERTEX
  5
140
  8
LAYER_1
 10
249.0595004745257
 20
188.0891618537466
 30
0.0
  0
VERTEX
  5
141
  8
LAYER_1
 10
250.1132809698758
 20
188.7431415321394
 30
0.0
  0
VERTEX
  5
142
  8
LAYER_1
 10
251.1432623782818
 20
189.4136155871299
 30
0.0
  0
VERTEX
  5
143
  8
LAYER_1
 10
252.1489734607675
 20
190.1002698594006
 30
0.0
  0
VERTEX
  5
144
  8
LAYER_1
 10
253.1299429783567
 20
190.802790189634
 30
0.0
  0
VERTEX
  5
145
  8
LAYER_1
 10
254.0856996920731
 20
191.5208624185126
 30
0.0
  0
VERTEX
  5
146
  8
LAYER_1
 10
255.0157723629406
 20
192.254172386719
 30
0.0
  0
VERTEX
  5
147
  8
LAYER_1
 10
255.9196897519829
 20
193.0024059349356
 30
0.0
  0
VERTEX
  5
148
  8
LAYER_1
 10
256.7969806202237
 20
193.7652489038451
 30
0.0
  0
VERTEX
  5
149
  8
LAYER_1
 10
257.647173728687
 20
194.5423871341299
 30
0.0
  0
VERTEX
  5
14A
  8
LAYER_1
 10
258.4697978383964
 20
195.3335064664724
 30
0.0
  0
VERTEX
  5
14B
  8
LAYER_1
 10
259.2643817103757
 20
196.1382927415553
 30
0.0
  0
VERTEX
  5
14C
  8
LAYER_1
 10
259.6510112950365
 20
196.5457128078377
 30
0.0
  0
VERTEX
  5
14D
  8
LAYER_1
 10
260.0304541056487
 20
196.9564318000611
 30
0.0
  0
VERTEX
  5
14E
  8
LAYER_1
 10
260.4026512373403
 20
197.3704104483109
 30
0.0
  0
VERTEX
  5
14F
  8
LAYER_1
 10
260.7675437852392
 20
197.7876094826723
 30
0.0
  0
VERTEX
  5
150
  8
LAYER_1
 10
261.1250728444735
 20
198.2079896332307
 30
0.0
  0
VERTEX
  5
151
  8
LAYER_1
 10
261.475179510171
 20
198.6315116300714
 30
0.0
  0
VERTEX
  5
152
  8
LAYER_1
 10
261.8178048774598
 20
199.0581362032797
 30
0.0
  0
VERTEX
  5
153
  8
LAYER_1
 10
262.1528900414678
 20
199.4878240829409
 30
0.0
  0
VERTEX
  5
154
  8
LAYER_1
 10
262.480376097323
 20
199.9205359991404
 30
0.0
  0
VERTEX
  5
155
  8
LAYER_1
 10
262.8002041401534
 20
200.3562326819634
 30
0.0
  0
VERTEX
  5
156
  8
LAYER_1
 10
263.112315265087
 20
200.7948748614953
 30
0.0
  0
VERTEX
  5
157
  8
LAYER_1
 10
263.4166505672516
 20
201.2364232678213
 30
0.0
  0
VERTEX
  5
158
  8
LAYER_1
 10
263.7131511417754
 20
201.6808386310269
 30
0.0
  0
VERTEX
  5
159
  8
LAYER_1
 10
264.0017580837862
 20
202.1280816811972
 30
0.0
  0
VERTEX
  5
15A
  8
LAYER_1
 10
264.282412488412
 20
202.5781131484177
 30
0.0
  0
VERTEX
  5
15B
  8
LAYER_1
 10
264.5550554507809
 20
203.0308937627736
 30
0.0
  0
VERTEX
  5
15C
  8
LAYER_1
 10
264.8196280660208
 20
203.4863842543502
 30
0.0
  0
VERTEX
  5
15D
  8
LAYER_1
 10
265.0760714292595
 20
203.944545353233
 30
0.0
  0
VERTEX
  5
15E
  8
LAYER_1
 10
265.3243266356253
 20
204.4053377895071
 30
0.0
  0
VERTEX
  5
15F
  8
LAYER_1
 10
265.5643347802459
 20
204.868722293258
 30
0.0
  0
VERTEX
  5
160
  8
LAYER_1
 10
265.7960369582494
 20
205.3346595945708
 30
0.0
  0
VERTEX
  5
161
  8
LAYER_1
 10
266.0193742647638
 20
205.8031104235309
 30
0.0
  0
VERTEX
  5
162
  8
LAYER_1
 10
266.2342877949169
 20
206.2740355102238
 30
0.0
  0
VERTEX
  5
163
  8
LAYER_1
 10
266.4407186438368
 20
206.7473955847345
 30
0.0
  0
VERTEX
  5
164
  8
LAYER_1
 10
266.6386079066515
 20
207.2231513771486
 30
0.0
  0
VERTEX
  5
165
  8
LAYER_1
 10
266.827896678489
 20
207.7012636175512
 30
0.0
  0
VERTEX
  5
166
  8
LAYER_1
 10
267.0085260544771
 20
208.1816930360277
 30
0.0
  0
VERTEX
  5
167
  8
LAYER_1
 10
267.180437129744
 20
208.6644003626634
 30
0.0
  0
VERTEX
  5
168
  8
LAYER_1
 10
267.3435709994174
 20
209.1493463275437
 30
0.0
  0
VERTEX
  5
169
  8
LAYER_1
 10
267.4978687586255
 20
209.6364916607538
 30
0.0
  0
VERTEX
  5
16A
  8
LAYER_1
 10
267.6432715024962
 20
210.1257970923791
 30
0.0
  0
VERTEX
  5
16B
  8
LAYER_1
 10
267.7797203261575
 20
210.6172233525049
 30
0.0
  0
VERTEX
  5
16C
  8
LAYER_1
 10
267.9071563247372
 20
211.1107311712165
 30
0.0
  0
VERTEX
  5
16D
  8
LAYER_1
 10
268.0255205933635
 20
211.6062812785991
 30
0.0
  0
VERTEX
  5
16E
  8
LAYER_1
 10
268.1347542271643
 20
212.1038344047382
 30
0.0
  0
VERTEX
  5
16F
  8
LAYER_1
 10
268.2347983212675
 20
212.603351279719
 30
0.0
  0
VERTEX
  5
170
  8
LAYER_1
 10
268.3255939708012
 20
213.1047926336269
 30
0.0
  0
VERTEX
  5
171
  8
LAYER_1
 10
268.4070822708933
 20
213.6081191965471
 30
0.0
  0
VERTEX
  5
172
  8
LAYER_1
 10
268.4792043166717
 20
214.113291698565
 30
0.0
  0
VERTEX
  5
173
  8
LAYER_1
 10
268.5419012032645
 20
214.6202708697659
 30
0.0
  0
VERTEX
  5
174
  8
LAYER_1
 10
268.5951140257996
 20
215.1290174402351
 30
0.0
  0
VERTEX
  5
175
  8
LAYER_1
 10
268.638783879405
 20
215.639492140058
 30
0.0
  0
VERTEX
  5
176
  8
LAYER_1
 10
268.6728518592085
 20
216.1516556993198
 30
0.0
  0
VERTEX
  5
177
  8
LAYER_1
 10
268.6972590603384
 20
216.6654688481058
 30
0.0
  0
VERTEX
  5
178
  8
LAYER_1
 10
268.7119465779225
 20
217.1808923165015
 30
0.0
  0
VERTEX
  5
179
  8
LAYER_1
 10
268.7168555070888
 20
217.6978868345919
 30
0.0
  0
VERTEX
  5
17A
  8
LAYER_1
 10
268.7119465779225
 20
218.2148813526824
 30
0.0
  0
VERTEX
  5
17B
  8
LAYER_1
 10
268.6972590603384
 20
218.7303048210781
 30
0.0
  0
VERTEX
  5
17C
  8
LAYER_1
 10
268.6728518592085
 20
219.2441179698641
 30
0.0
  0
VERTEX
  5
17D
  8
LAYER_1
 10
268.638783879405
 20
219.7562815291259
 30
0.0
  0
VERTEX
  5
17E
  8
LAYER_1
 10
268.5951140257996
 20
220.2667562289487
 30
0.0
  0
VERTEX
  5
17F
  8
LAYER_1
 10
268.5419012032645
 20
220.7755027994179
 30
0.0
  0
VERTEX
  5
180
  8
LAYER_1
 10
268.4792043166717
 20
221.2824819706189
 30
0.0
  0
VERTEX
  5
181
  8
LAYER_1
 10
268.4070822708933
 20
221.7876544726368
 30
0.0
  0
VERTEX
  5
182
  8
LAYER_1
 10
268.3255939708012
 20
222.290981035557
 30
0.0
  0
VERTEX
  5
183
  8
LAYER_1
 10
268.2347983212675
 20
222.7924223894649
 30
0.0
  0
VERTEX
  5
184
  8
LAYER_1
 10
268.1347542271643
 20
223.2919392644457
 30
0.0
  0
VERTEX
  5
185
  8
LAYER_1
 10
268.0255205933635
 20
223.7894923905848
 30
0.0
  0
VERTEX
  5
186
  8
LAYER_1
 10
267.9071563247372
 20
224.2850424979674
 30
0.0
  0
VERTEX
  5
187
  8
LAYER_1
 10
267.7797203261575
 20
224.778550316679
 30
0.0
  0
VERTEX
  5
188
  8
LAYER_1
 10
267.6432715024962
 20
225.2699765768048
 30
0.0
  0
VERTEX
  5
189
  8
LAYER_1
 10
267.4978687586255
 20
225.75928200843
 30
0.0
  0
VERTEX
  5
18A
  8
LAYER_1
 10
267.3435709994174
 20
226.2464273416402
 30
0.0
  0
VERTEX
  5
18B
  8
LAYER_1
 10
267.180437129744
 20
226.7313733065205
 30
0.0
  0
VERTEX
  5
18C
  8
LAYER_1
 10
267.0085260544771
 20
227.2140806331562
 30
0.0
  0
VERTEX
  5
18D
  8
LAYER_1
 10
266.827896678489
 20
227.6945100516327
 30
0.0
  0
VERTEX
  5
18E
  8
LAYER_1
 10
266.6386079066515
 20
228.1726222920353
 30
0.0
  0
VERTEX
  5
18F
  8
LAYER_1
 10
266.4407186438368
 20
228.6483780844493
 30
0.0
  0
VERTEX
  5
190
  8
LAYER_1
 10
266.2342877949169
 20
229.1217381589601
 30
0.0
  0
VERTEX
  5
191
  8
LAYER_1
 10
266.0193742647638
 20
229.5926632456529
 30
0.0
  0
VERTEX
  5
192
  8
LAYER_1
 10
265.7960369582494
 20
230.0611140746131
 30
0.0
  0
VERTEX
  5
193
  8
LAYER_1
 10
265.5643347802459
 20
230.5270513759259
 30
0.0
  0
VERTEX
  5
194
  8
LAYER_1
 10
265.3243266356253
 20
230.9904358796767
 30
0.0
  0
VERTEX
  5
195
  8
LAYER_1
 10
265.0760714292595
 20
231.4512283159509
 30
0.0
  0
VERTEX
  5
196
  8
LAYER_1
 10
264.8196280660208
 20
231.9093894148336
 30
0.0
  0
VERTEX
  5
197
  8
LAYER_1
 10
264.5550554507809
 20
232.3648799064103
 30
0.0
  0
VERTEX
  5
198
  8
LAYER_1
 10
264.282412488412
 20
232.8176605207662
 30
0.0
  0
VERTEX
  5
199
  8
LAYER_1
 10
264.0017580837862
 20
233.2676919879867
 30
0.0
  0
VERTEX
  5
19A
  8
LAYER_1
 10
263.7131511417754
 20
233.714935038157
 30
0.0
  0
VERTEX
  5
19B
  8
LAYER_1
 10
263.4166505672516
 20
234.1593504013626
 30
0.0
  0
VERTEX
  5
19C
  8
LAYER_1
 10
263.112315265087
 20
234.6008988076886
 30
0.0
  0
VERTEX
  5
19D
  8
LAYER_1
 10
262.8002041401534
 20
235.0395409872205
 30
0.0
  0
VERTEX
  5
19E
  8
LAYER_1
 10
262.480376097323
 20
235.4752376700435
 30
0.0
  0
VERTEX
  5
19F
  8
LAYER_1
 10
262.1528900414678
 20
235.9079495862429
 30
0.0
  0
VERTEX
  5
1A0
  8
LAYER_1
 10
261.8178048774598
 20
236.3376374659042
 30
0.0
  0
VERTEX
  5
1A1
  8
LAYER_1
 10
261.475179510171
 20
236.7642620391125
 30
0.0
  0
VERTEX
  5
1A2
  8
LAYER_1
 10
261.1250728444735
 20
237.1877840359531
 30
0.0
  0
VERTEX
  5
1A3
  8
LAYER_1
 10
260.7675437852392
 20
237.6081641865115
 30
0.0
  0
VERTEX
  5
1A4
  8
LAYER_1
 10
260.4026512373403
 20
238.025363220873
 30
0.0
  0
VERTEX
  5
1A5
  8
LAYER_1
 10
260.0304541056487
 20
238.4393418691228
 30
0.0
  0
VERTEX
  5
1A6
  8
LAYER_1
 10
259.2643817103757
 20
239.2574809276285
 30
0.0
  0
VERTEX
  5
1A7
  8
LAYER_1
 10
258.4697978383964
 20
240.0622672027115
 30
0.0
  0
VERTEX
  5
1A8
  8
LAYER_1
 10
257.647173728687
 20
240.853386535054
 30
0.0
  0
VERTEX
  5
1A9
  8
LAYER_1
 10
256.7969806202237
 20
241.6305247653388
 30
0.0
  0
VERTEX
  5
1AA
  8
LAYER_1
 10
255.9196897519829
 20
242.3933677342483
 30
0.0
  0
VERTEX
  5
1AB
  8
LAYER_1
 10
255.0157723629406
 20
243.1416012824649
 30
0.0
  0
VERTEX
  5
1AC
  8
LAYER_1
 10
254.0856996920731
 20
243.8749112506713
 30
0.0
  0
VERTEX
  5
1AD
  8
LAYER_1
 10
253.1299429783567
 20
244.5929834795499
 30
0.0
  0
VERTEX
  5
1AE
  8
LAYER_1
 10
252.1489734607675
 20
245.2955038097833
 30
0.0
  0
VERTEX
  5
1AF
  8
LAYER_1
 10
251.1432623782818
 20
245.982158082054
 30
0.0
  0
VERTEX
  5
1B0
  8
LAYER_1
 10
250.1132809698758
 20
246.6526321370445
 30
0.0
  0
VERTEX
  5
1B1
  8
LAYER_1
 10
249.0595004745257
 20
247.3066118154372
 30
0.0
  0
VERTEX
  5
1B2
  8
LAYER_1
 10
247.9823921312078
 20
247.9437829579148
 30
0.0
  0
VERTEX
  5
1B3
  8
LAYER_1
 10
246.8824271788982
 20
248.5638314051598
 30
0.0
  0
VERTEX
  5
1B4
  8
LAYER_1
 10
245.7600768565733
 20
249.1664429978547
 30
0.0
  0
VERTEX
  5
1B5
  8
LAYER_1
 10
244.6158124032091
 20
249.7513035766819
 30
0.0
  0
VERTEX
  5
1B6
  8
LAYER_1
 10
243.450105057782
 20
250.318098982324
 30
0.0
  0
VERTEX
  5
1B7
  8
LAYER_1
 10
242.2634260592681
 20
250.8665150554637
 30
0.0
  0
VERTEX
  5
1B8
  8
LAYER_1
 10
241.0562466466437
 20
251.3962376367832
 30
0.0
  0
VERTEX
  5
1B9
  8
LAYER_1
 10
239.829038058885
 20
251.9069525669652
 30
0.0
  0
VERTEX
  5
1BA
  8
LAYER_1
 10
238.5822715349682
 20
252.3983456866922
 30
0.0
  0
VERTEX
  5
1BB
  8
LAYER_1
 10
237.3164183138696
 20
252.8701028366467
 30
0.0
  0
VERTEX
  5
1BC
  8
LAYER_1
 10
236.0319496345653
 20
253.3219098575113
 30
0.0
  0
VERTEX
  5
1BD
  8
LAYER_1
 10
234.7293367360317
 20
253.7534525899683
 30
0.0
  0
VERTEX
  5
1BE
  8
LAYER_1
 10
233.4090508572448
 20
254.1644168747005
 30
0.0
  0
VERTEX
  5
1BF
  8
LAYER_1
 10
232.0715632371809
 20
254.5544885523902
 30
0.0
  0
VERTEX
  5
1C0
  8
LAYER_1
 10
230.7173451148163
 20
254.92335346372
 30
0.0
  0
VERTEX
  5
1C1
  8
LAYER_1
 10
229.3468677291272
 20
255.2706974493724
 30
0.0
  0
VERTEX
  5
1C2
  8
LAYER_1
 10
227.9606023190898
 20
255.59620635003
 30
0.0
  0
VERTEX
  5
1C3
  8
LAYER_1
 10
226.5590201236803
 20
255.8995660063752
 30
0.0
  0
VERTEX
  5
1C4
  8
LAYER_1
 10
225.1425923818749
 20
256.1804622590906
 30
0.0
  0
VERTEX
  5
1C5
  8
LAYER_1
 10
223.7117903326499
 20
256.4385809488587
 30
0.0
  0
VERTEX
  5
1C6
  8
LAYER_1
 10
222.2670852149815
 20
256.673607916362
 30
0.0
  0
VERTEX
  5
1C7
  8
LAYER_1
 10
220.8089482678459
 20
256.885229002283
 30
0.0
  0
VERTEX
  5
1C8
  8
LAYER_1
 10
219.3378507302194
 20
257.0731300473043
 30
0.0
  0
VERTEX
  5
1C9
  8
LAYER_1
 10
217.8542638410781
 20
257.2369968921084
 30
0.0
  0
VERTEX
  5
1CA
  8
LAYER_1
 10
216.3586588393982
 20
257.3765153773778
 30
0.0
  0
VERTEX
  5
1CB
  8
LAYER_1
 10
214.851506964156
 20
257.4913713437949
 30
0.0
  0
VERTEX
  5
1CC
  8
LAYER_1
 10
213.3332794543278
 20
257.5812506320424
 30
0.0
  0
VERTEX
  5
1CD
  8
LAYER_1
 10
211.8044475488897
 20
257.6458390828027
 30
0.0
  0
VERTEX
  5
1CE
  8
LAYER_1
 10
210.2654824868179
 20
257.6848225367584
 30
0.0
  0
SEQEND
  5
825
  8
LAYER_1
  0
POLYLINE
  5
61
  8
LAYER_1
 66
     1
 10
0.0
 20
0.0
 30
0.0
 70
     1
  0
VERTEX
  5
1CF
  8
LAYER_1
 10
208.7168555070888
 20
267.6982426626797
 30
0.0
  0
VERTEX
  5
1D0
  8
LAYER_1
 10
206.9994235722401
 20
267.6837543160378
 30
0.0
  0
VERTEX
  5
1D1
  8
LAYER_1
 10
205.2915788237509
 20
267.6404929808065
 30
0.0
  0
VERTEX
  5
1D2
  8
LAYER_1
 10
203.5938655748827
 20
267.5687698124399
 30
0.0
  0
VERTEX
  5
1D3
  8
LAYER_1
 10
201.9067374396103
 20
267.4688915816092
 30
0.0
  0
VERTEX
  5
1D4
  8
LAYER_1
 10
200.2306447360092
 20
267.3411610915515
 30
0.0
  0
VERTEX
  5
1D5
  8
LAYER_1
 10
198.566034642215
 20
267.1858768567632
 30
0.0
  0
VERTEX
  5
1D6
  8
LAYER_1
 10
196.9133513658084
 20
267.0033327834404
 30
0.0
  0
VERTEX
  5
1D7
  8
LAYER_1
 10
195.2730363229124
 20
266.7938178446799
 30
0.0
  0
VERTEX
  5
1D8
  8
LAYER_1
 10
193.6455283323516
 20
266.557615745203
 30
0.0
  0
VERTEX
  5
1D9
  8
LAYER_1
 10
192.0312638230165
 20
266.2950045808408
 30
0.0
  0
VERTEX
  5
1DA
  8
LAYER_1
 10
190.4306770597827
 20
266.0062564927808
 30
0.0
  0
VERTEX
  5
1DB
  8
LAYER_1
 10
188.8442003862359
 20
265.6916372991124
 30
0.0
  0
VERTEX
  5
1DC
  8
LAYER_1
 10
187.2722644894451
 20
265.3514061403417
 30
0.0
  0
VERTEX
  5
1DD
  8
LAYER_1
 10
185.715298689181
 20
264.9858150917295
 30
0.0
  0
VERTEX
  5
1DE
  8
LAYER_1
 10
184.1737312579129
 20
264.5951087721347
 30
0.0
  0
VERTEX
  5
1DF
  8
LAYER_1
 10
182.6479897635067
 20
264.1795239458748
 30
0.0
  0
VERTEX
  5
1E0
  8
LAYER_1
 10
181.1385014612528
 20
263.7392891158539
 30
0.0
  0
VERTEX
  5
1E1
  8
LAYER_1
 10
179.6456937142715
 20
263.2746240939902
 30
0.0
  0
VERTEX
  5
1E2
  8
LAYER_1
 10
178.1699944684873
 20
262.7857395716434
 30
0.0
  0
VERTEX
  5
1E3
  8
LAYER_1
 10
176.7118327769344
 20
262.2728366882963
 30
0.0
  0
VERTEX
  5
1E4
  8
LAYER_1
 10
175.271639384307
 20
261.7361065845195
 30
0.0
  0
VERTEX
  5
1E5
  8
LAYER_1
 10
173.8498473748108
 20
261.175729963668
 30
0.0
  0
VERTEX
  5
1E6
  8
LAYER_1
 10
172.4468929033968
 20
260.5918766535775
 30
0.0
  0
VERTEX
  5
1E7
  8
LAYER_1
 10
171.0632159981537
 20
259.9847051822304
 30
0.0
  0
VERTEX
  5
1E8
  8
LAYER_1
 10
169.6992614666009
 20
259.354362360407
 30
0.0
  0
VERTEX
  5
1E9
  8
LAYER_1
 10
168.355479888421
 20
258.7009829097384
 30
0.0
  0
VERTEX
  5
1EA
  8
LAYER_1
 10
167.0323287426503
 20
258.0246891186995
 30
0.0
  0
VERTEX
  5
1EB
  8
LAYER_1
 10
165.7302736344058
 20
257.3255905527345
 30
0.0
  0
VERTEX
  5
1EC
  8
LAYER_1
 10
164.4497896674214
 20
256.6037838307399
 30
0.0
  0
VERTEX
  5
1ED
  8
LAYER_1
 10
163.1913629510449
 20
255.8593525080665
 30
0.0
  0
VERTEX
  5
1EE
  8
LAYER_1
 10
161.9554922670135
 20
255.092367052073
 30
0.0
  0
VERTEX
  5
1EF
  8
LAYER_1
 10
160.7426908820411
 20
254.3028849748385
 30
0.0
  0
VERTEX
  5
1F0
  8
LAYER_1
 10
159.5534885402661
 20
253.4909511282764
 30
0.0
  0
VERTEX
  5
1F1
  8
LAYER_1
 10
158.3884336058758
 20
252.6565982122862
 30
0.0
  0
VERTEX
  5
1F2
  8
LAYER_1
 10
157.248095389957
 20
251.7998475430956
 30
0.0
  0
VERTEX
  5
1F3
  8
LAYER_1
 10
156.1330666187927
 20
250.9207100957589
 30
0.0
  0
VERTEX
  5
1F4
  8
LAYER_1
 10
155.0439660654296
 20
250.01918792035
 30
0.0
  0
VERTEX
  5
1F5
  8
LAYER_1
 10
153.9814412964982
 20
249.0952759318476
 30
0.0
  0
VERTEX
  5
1F6
  8
LAYER_1
 10
152.9461715159481
 20
248.1489641872191
 30
0.0
  0
VERTEX
  5
1F7
  8
LAYER_1
 10
151.938870471647
 20
247.1802406601797
 30
0.0
  0
VERTEX
  5
1F8
  8
LAYER_1
 10
150.9602893322948
 20
246.1890946061773
 30
0.0
  0
VERTEX
  5
1F9
  8
LAYER_1
 10
150.0112195119503
 20
245.1755205682435
 30
0.0
  0
VERTEX
  5
1FA
  8
LAYER_1
 10
149.0924952963609
 20
244.1395230699869
 30
0.0
  0
VERTEX
  5
1FB
  8
LAYER_1
 10
148.2049962108498
 20
243.0811220332704
 30
0.0
  0
VERTEX
  5
1FC
  8
LAYER_1
 10
147.3496489446619
 20
242.0003589624845
 30
0.0
  0
VERTEX
  5
1FD
  8
LAYER_1
 10
146.5274287287388
 20
240.8973038823184
 30
0.0
  0
VERTEX
  5
1FE
  8
LAYER_1
 10
145.7393599608689
 20
239.7720630159325
 30
0.0
  0
VERTEX
  5
1FF
  8
LAYER_1
 10
144.9865158931128
 20
238.6247871266984
 30
0.0
  0
VERTEX
  5
200
  8
LAYER_1
 10
144.2700172225954
 20
237.4556804309556
 30
0.0
  0
VERTEX
  5
201
  8
LAYER_1
 10
143.5910293289702
 20
236.2650099054168
 30
0.0
  0
VERTEX
  5
202
  8
LAYER_1
 10
142.9507580310814
 20
235.0531147910239
 30
0.0
  0
VERTEX
  5
203
  8
LAYER_1
 10
142.350443658513
 20
233.8204159981411
 30
0.0
  0
VERTEX
  5
204
  8
LAYER_1
 10
141.7913533524619
 20
232.5674250813041
 30
0.0
  0
VERTEX
  5
205
  8
LAYER_1
 10
141.2747715068757
 20
231.294752396732
 30
0.0
  0
VERTEX
  5
206
  8
LAYER_1
 10
140.801988397004
 20
230.0031139955696
 30
0.0
  0
VERTEX
  5
207
  8
LAYER_1
 10
140.3742871036296
 20
228.6933368075712
 30
0.0
  0
VERTEX
  5
208
  8
LAYER_1
 10
139.9929289460191
 20
227.3663616385035
 30
0.0
  0
VERTEX
  5
209
  8
LAYER_1
 10
139.6591377990329
 20
226.023243574398
 30
0.0
  0
VERTEX
  5
20A
  8
LAYER_1
 10
139.3740837309518
 20
224.6651494159029
 30
0.0
  0
VERTEX
  5
20B
  8
LAYER_1
 10
139.1388665330372
 20
223.2933519004451
 30
0.0
  0
VERTEX
  5
20C
  8
LAYER_1
 10
138.9544997921688
 20
221.9092205875655
 30
0.0
  0
VERTEX
  5
20D
  8
LAYER_1
 10
138.8218961893357
 20
220.5142094631971
 30
0.0
  0
VERTEX
  5
20E
  8
LAYER_1
 10
138.7418547312039
 20
219.1098414919157
 30
0.0
  0
VERTEX
  5
20F
  8
LAYER_1
 10
138.7150542558878
 20
217.6978868345919
 30
0.0
  0
VERTEX
  5
210
  8
LAYER_1
 10
138.7418547312039
 20
216.2859321772681
 30
0.0
  0
VERTEX
  5
211
  8
LAYER_1
 10
138.8218961893357
 20
214.8815642059868
 30
0.0
  0
VERTEX
  5
212
  8
LAYER_1
 10
138.9544997921688
 20
213.4865530816184
 30
0.0
  0
VERTEX
  5
213
  8
LAYER_1
 10
139.1388665330372
 20
212.1024217687387
 30
0.0
  0
VERTEX
  5
214
  8
LAYER_1
 10
139.3740837309518
 20
210.730624253281
 30
0.0
  0
VERTEX
  5
215
  8
LAYER_1
 10
139.6591377990329
 20
209.3725300947859
 30
0.0
  0
VERTEX
  5
216
  8
LAYER_1
 10
139.9929289460191
 20
208.0294120306804
 30
0.0
  0
VERTEX
  5
217
  8
LAYER_1
 10
140.3742871036296
 20
206.7024368616127
 30
0.0
  0
VERTEX
  5
218
  8
LAYER_1
 10
140.801988397004
 20
205.3926596736143
 30
0.0
  0
VERTEX
  5
219
  8
LAYER_1
 10
141.2747715068757
 20
204.1010212724519
 30
0.0
  0
VERTEX
  5
21A
  8
LAYER_1
 10
141.7913533524619
 20
202.8283485878798
 30
0.0
  0
VERTEX
  5
21B
  8
LAYER_1
 10
142.350443658513
 20
201.5753576710428
 30
0.0
  0
VERTEX
  5
21C
  8
LAYER_1
 10
142.9507580310814
 20
200.34265887816
 30
0.0
  0
VERTEX
  5
21D
  8
LAYER_1
 10
143.5910293289702
 20
199.130763763767
 30
0.0
  0
VERTEX
  5
21E
  8
LAYER_1
 10
144.2700172225954
 20
197.9400932382283
 30
0.0
  0
VERTEX
  5
21F
  8
LAYER_1
 10
144.9865158931128
 20
196.7709865424855
 30
0.0
  0
VERTEX
  5
220
  8
LAYER_1
 10
145.7393599608689
 20
195.6237106532514
 30
0.0
  0
VERTEX
  5
221
  8
LAYER_1
 10
146.5274287287388
 20
194.4984697868655
 30
0.0
  0
VERTEX
  5
222
  8
LAYER_1
 10
147.3496489446619
 20
193.3954147066994
 30
0.0
  0
VERTEX
  5
223
  8
LAYER_1
 10
148.2049962108498
 20
192.3146516359135
 30
0.0
  0
VERTEX
  5
224
  8
LAYER_1
 10
149.0924952963609
 20
191.256250599197
 30
0.0
  0
VERTEX
  5
225
  8
LAYER_1
 10
150.0112195119503
 20
190.2202531009403
 30
0.0
  0
VERTEX
  5
226
  8
LAYER_1
 10
150.9602893322948
 20
189.2066790630066
 30
0.0
  0
VERTEX
  5
227
  8
LAYER_1
 10
151.938870471647
 20
188.2155330090042
 30
0.0
  0
VERTEX
  5
228
  8
LAYER_1
 10
152.9461715159481
 20
187.2468094819648
 30
0.0
  0
VERTEX
  5
229
  8
LAYER_1
 10
153.9814412964982
 20
186.3004977373363
 30
0.0
  0
VERTEX
  5
22A
  8
LAYER_1
 10
155.0439660654296
 20
185.3765857488339
 30
0.0
  0
VERTEX
  5
22B
  8
LAYER_1
 10
156.1330666187927
 20
184.475063573425
 30
0.0
  0
VERTEX
  5
22C
  8
LAYER_1
 10
157.248095389957
 20
183.5959261260883
 30
0.0
  0
VERTEX
  5
22D
  8
LAYER_1
 10
158.3884336058758
 20
182.7391754568977
 30
0.0
  0
VERTEX
  5
22E
  8
LAYER_1
 10
159.5534885402661
 20
181.9048225409075
 30
0.0
  0
VERTEX
  5
22F
  8
LAYER_1
 10
160.7426908820411
 20
181.0928886943453
 30
0.0
  0
VERTEX
  5
230
  8
LAYER_1
 10
161.9554922670135
 20
180.3034066171109
 30
0.0
  0
VERTEX
  5
231
  8
LAYER_1
 10
163.1913629510449
 20
179.5364211611173
 30
0.0
  0
VERTEX
  5
232
  8
LAYER_1
 10
164.4497896674214
 20
178.791989838444
 30
0.0
  0
VERTEX
  5
233
  8
LAYER_1
 10
165.7302736344058
 20
178.0701831164494
 30
0.0
  0
VERTEX
  5
234
  8
LAYER_1
 10
167.0323287426503
 20
177.3710845504844
 30
0.0
  0
VERTEX
  5
235
  8
LAYER_1
 10
168.355479888421
 20
176.6947907594455
 30
0.0
  0
VERTEX
  5
236
  8
LAYER_1
 10
169.6992614666009
 20
176.0414113087769
 30
0.0
  0
VERTEX
  5
237
  8
LAYER_1
 10
171.0632159981537
 20
175.4110684869535
 30
0.0
  0
VERTEX
  5
238
  8
LAYER_1
 10
172.4468929033968
 20
174.8038970156064
 30
0.0
  0
VERTEX
  5
239
  8
LAYER_1
 10
173.8498473748108
 20
174.2200437055159
 30
0.0
  0
VERTEX
  5
23A
  8
LAYER_1
 10
175.271639384307
 20
173.6596670846644
 30
0.0
  0
VERTEX
  5
23B
  8
LAYER_1
 10
176.7118327769344
 20
173.1229369808876
 30
0.0
  0
VERTEX
  5
23C
  8
LAYER_1
 10
178.1699944684873
 20
172.6100340975405
 30
0.0
  0
VERTEX
  5
23D
  8
LAYER_1
 10
179.6456937142715
 20
172.1211495751937
 30
0.0
  0
VERTEX
  5
23E
  8
LAYER_1
 10
181.1385014612528
 20
171.65648455333
 30
0.0
  0
VERTEX
  5
23F
  8
LAYER_1
 10
182.6479897635067
 20
171.216249723309
 30
0.0
  0
VERTEX
  5
240
  8
LAYER_1
 10
184.1737312579129
 20
170.8006648970492
 30
0.0
  0
VERTEX
  5
241
  8
LAYER_1
 10
185.715298689181
 20
170.4099585774544
 30
0.0
  0
VERTEX
  5
242
  8
LAYER_1
 10
187.2722644894451
 20
170.0443675288421
 30
0.0
  0
VERTEX
  5
243
  8
LAYER_1
 10
188.8442003862359
 20
169.7041363700715
 30
0.0
  0
VERTEX
  5
244
  8
LAYER_1
 10
190.4306770597827
 20
169.389517176403
 30
0.0
  0
VERTEX
  5
245
  8
LAYER_1
 10
192.0312638230165
 20
169.1007690883431
 30
0.0
  0
VERTEX
  5
246
  8
LAYER_1
 10
193.6455283323516
 20
168.8381579239809
 30
0.0
  0
VERTEX
  5
247
  8
LAYER_1
 10
195.2730363229124
 20
168.601955824504
 30
0.0
  0
VERTEX
  5
248
  8
LAYER_1
 10
196.9133513658084
 20
168.3924408857434
 30
0.0
  0
VERTEX
  5
249
  8
LAYER_1
 10
198.566034642215
 20
168.2098968124207
 30
0.0
  0
VERTEX
  5
24A
  8
LAYER_1
 10
200.2306447360092
 20
168.0546125776324
 30
0.0
  0
VERTEX
  5
24B
  8
LAYER_1
 10
201.9067374396103
 20
167.9268820875747
 30
0.0
  0
VERTEX
  5
24C
  8
LAYER_1
 10
203.5938655748827
 20
167.827003856744
 30
0.0
  0
VERTEX
  5
24D
  8
LAYER_1
 10
205.2915788237509
 20
167.7552806883774
 30
0.0
  0
VERTEX
  5
24E
  8
LAYER_1
 10
206.9994235722401
 20
167.712019353146
 30
0.0
  0
VERTEX
  5
24F
  8
LAYER_1
 10
208.7168555070888
 20
167.6975310065042
 30
0.0
  0
VERTEX
  5
250
  8
LAYER_1
 10
210.4342874419375
 20
167.712019353146
 30
0.0
  0
VERTEX
  5
251
  8
LAYER_1
 10
212.1421321904267
 20
167.7552806883774
 30
0.0
  0
VERTEX
  5
252
  8
LAYER_1
 10
213.8398454392949
 20
167.827003856744
 30
0.0
  0
VERTEX
  5
253
  8
LAYER_1
 10
215.5269735745673
 20
167.9268820875747
 30
0.0
  0
VERTEX
  5
254
  8
LAYER_1
 10
217.2030662781684
 20
168.0546125776324
 30
0.0
  0
VERTEX
  5
255
  8
LAYER_1
 10
218.8676763719626
 20
168.2098968124207
 30
0.0
  0
VERTEX
  5
256
  8
LAYER_1
 10
220.5203596483692
 20
168.3924408857434
 30
0.0
  0
VERTEX
  5
257
  8
LAYER_1
 10
222.1606746912652
 20
168.601955824504
 30
0.0
  0
VERTEX
  5
258
  8
LAYER_1
 10
223.788182681826
 20
168.8381579239809
 30
0.0
  0
VERTEX
  5
259
  8
LAYER_1
 10
225.4024471911611
 20
169.1007690883431
 30
0.0
  0
VERTEX
  5
25A
  8
LAYER_1
 10
227.0030339543949
 20
169.389517176403
 30
0.0
  0
VERTEX
  5
25B
  8
LAYER_1
 10
228.5895106279416
 20
169.7041363700715
 30
0.0
  0
VERTEX
  5
25C
  8
LAYER_1
 10
230.1614465247325
 20
170.0443675288421
 30
0.0
  0
VERTEX
  5
25D
  8
LAYER_1
 10
231.7184123249966
 20
170.4099585774544
 30
0.0
  0
VERTEX
  5
25E
  8
LAYER_1
 10
233.2599797562647
 20
170.8006648970492
 30
0.0
  0
VERTEX
  5
25F
  8
LAYER_1
 10
234.7857212506709
 20
171.216249723309
 30
0.0
  0
VERTEX
  5
260
  8
LAYER_1
 10
236.2952095529248
 20
171.65648455333
 30
0.0
  0
VERTEX
  5
261
  8
LAYER_1
 10
237.7880172999061
 20
172.1211495751937
 30
0.0
  0
VERTEX
  5
262
  8
LAYER_1
 10
239.2637165456903
 20
172.6100340975405
 30
0.0
  0
VERTEX
  5
263
  8
LAYER_1
 10
240.7218782372432
 20
173.1229369808876
 30
0.0
  0
VERTEX
  5
264
  8
LAYER_1
 10
242.1620716298706
 20
173.6596670846644
 30
0.0
  0
VERTEX
  5
265
  8
LAYER_1
 10
243.5838636393668
 20
174.2200437055159
 30
0.0
  0
VERTEX
  5
266
  8
LAYER_1
 10
244.9868181107807
 20
174.8038970156064
 30
0.0
  0
VERTEX
  5
267
  8
LAYER_1
 10
246.3704950160239
 20
175.4110684869535
 30
0.0
  0
VERTEX
  5
268
  8
LAYER_1
 10
247.7344495475767
 20
176.0414113087769
 30
0.0
  0
VERTEX
  5
269
  8
LAYER_1
 10
249.0782311257566
 20
176.6947907594455
 30
0.0
  0
VERTEX
  5
26A
  8
LAYER_1
 10
250.4013822715273
 20
177.3710845504844
 30
0.0
  0
VERTEX
  5
26B
  8
LAYER_1
 10
251.7034373797718
 20
178.0701831164494
 30
0.0
  0
VERTEX
  5
26C
  8
LAYER_1
 10
252.9839213467561
 20
178.791989838444
 30
0.0
  0
VERTEX
  5
26D
  8
LAYER_1
 10
254.2423480631327
 20
179.5364211611173
 30
0.0
  0
VERTEX
  5
26E
  8
LAYER_1
 10
255.4782187471641
 20
180.3034066171109
 30
0.0
  0
VERTEX
  5
26F
  8
LAYER_1
 10
256.6910201321365
 20
181.0928886943453
 30
0.0
  0
VERTEX
  5
270
  8
LAYER_1
 10
257.8802224739114
 20
181.9048225409075
 30
0.0
  0
VERTEX
  5
271
  8
LAYER_1
 10
259.0452774083018
 20
182.7391754568977
 30
0.0
  0
VERTEX
  5
272
  8
LAYER_1
 10
260.1856156242205
 20
183.5959261260883
 30
0.0
  0
VERTEX
  5
273
  8
LAYER_1
 10
261.3006443953849
 20
184.475063573425
 30
0.0
  0
VERTEX
  5
274
  8
LAYER_1
 10
262.389744948748
 20
185.3765857488339
 30
0.0
  0
VERTEX
  5
275
  8
LAYER_1
 10
263.4522697176793
 20
186.3004977373363
 30
0.0
  0
VERTEX
  5
276
  8
LAYER_1
 10
264.4875394982295
 20
187.2468094819648
 30
0.0
  0
VERTEX
  5
277
  8
LAYER_1
 10
265.4948405425306
 20
188.2155330090042
 30
0.0
  0
VERTEX
  5
278
  8
LAYER_1
 10
266.4734216818828
 20
189.2066790630066
 30
0.0
  0
VERTEX
  5
279
  8
LAYER_1
 10
267.4224915022272
 20
190.2202531009403
 30
0.0
  0
VERTEX
  5
27A
  8
LAYER_1
 10
268.3412157178167
 20
191.256250599197
 30
0.0
  0
VERTEX
  5
27B
  8
LAYER_1
 10
269.2287148033278
 20
192.3146516359135
 30
0.0
  0
VERTEX
  5
27C
  8
LAYER_1
 10
270.0840620695157
 20
193.3954147066994
 30
0.0
  0
VERTEX
  5
27D
  8
LAYER_1
 10
270.9062822854388
 20
194.4984697868655
 30
0.0
  0
VERTEX
  5
27E
  8
LAYER_1
 10
271.6943510533087
 20
195.6237106532514
 30
0.0
  0
VERTEX
  5
27F
  8
LAYER_1
 10
272.4471951210647
 20
196.7709865424855
 30
0.0
  0
VERTEX
  5
280
  8
LAYER_1
 10
273.1636937915822
 20
197.9400932382283
 30
0.0
  0
VERTEX
  5
281
  8
LAYER_1
 10
273.8426816852074
 20
199.130763763767
 30
0.0
  0
VERTEX
  5
282
  8
LAYER_1
 10
274.4829529830962
 20
200.34265887816
 30
0.0
  0
VERTEX
  5
283
  8
LAYER_1
 10
275.0832673556646
 20
201.5753576710428
 30
0.0
  0
VERTEX
  5
284
  8
LAYER_1
 10
275.6423576617157
 20
202.8283485878798
 30
0.0
  0
VERTEX
  5
285
  8
LAYER_1
 10
276.1589395073019
 20
204.1010212724519
 30
0.0
  0
VERTEX
  5
286
  8
LAYER_1
 10
276.6317226171735
 20
205.3926596736143
 30
0.0
  0
VERTEX
  5
287
  8
LAYER_1
 10
277.0594239105479
 20
206.7024368616127
 30
0.0
  0
VERTEX
  5
288
  8
LAYER_1
 10
277.4407820681585
 20
208.0294120306804
 30
0.0
  0
VERTEX
  5
289
  8
LAYER_1
 10
277.7745732151446
 20
209.3725300947859
 30
0.0
  0
VERTEX
  5
28A
  8
LAYER_1
 10
278.0596272832257
 20
210.730624253281
 30
0.0
  0
VERTEX
  5
28B
  8
LAYER_1
 10
278.2948444811403
 20
212.1024217687387
 30
0.0
  0
VERTEX
  5
28C
  8
LAYER_1
 10
278.4792112220088
 20
213.4865530816184
 30
0.0
  0
VERTEX
  5
28D
  8
LAYER_1
 10
278.6118148248419
 20
214.8815642059868
 30
0.0
  0
VERTEX
  5
28E
  8
LAYER_1
 10
278.6918562829736
 20
216.2859321772681
 30
0.0
  0
VERTEX
  5
28F
  8
LAYER_1
 10
278.7186567582897
 20
217.6978868345919
 30
0.0
  0
VERTEX
  5
290
  8
LAYER_1
 10
278.6918562829736
 20
219.1098414919157
 30
0.0
  0
VERTEX
  5
291
  8
LAYER_1
 10
278.6118148248419
 20
220.5142094631971
 30
0.0
  0
VERTEX
  5
292
  8
LAYER_1
 10
278.4792112220088
 20
221.9092205875655
 30
0.0
  0
VERTEX
  5
293
  8
LAYER_1
 10
278.2948444811403
 20
223.2933519004451
 30
0.0
  0
VERTEX
  5
294
  8
LAYER_1
 10
278.0596272832257
 20
224.6651494159029
 30
0.0
  0
VERTEX
  5
295
  8
LAYER_1
 10
277.7745732151446
 20
226.023243574398
 30
0.0
  0
VERTEX
  5
296
  8
LAYER_1
 10
277.4407820681585
 20
227.3663616385035
 30
0.0
  0
VERTEX
  5
297
  8
LAYER_1
 10
277.0594239105479
 20
228.6933368075712
 30
0.0
  0
VERTEX
  5
298
  8
LAYER_1
 10
276.6317226171735
 20
230.0031139955696
 30
0.0
  0
VERTEX
  5
299
  8
LAYER_1
 10
276.1589395073019
 20
231.294752396732
 30
0.0
  0
VERTEX
  5
29A
  8
LAYER_1
 10
275.6423576617157
 20
232.5674250813041
 30
0.0
  0
VERTEX
  5
29B
  8
LAYER_1
 10
275.0832673556646
 20
233.8204159981411
 30
0.0
  0
VERTEX
  5
29C
  8
LAYER_1
 10
274.4829529830962
 20
235.0531147910239
 30
0.0
  0
VERTEX
  5
29D
  8
LAYER_1
 10
273.8426816852074
 20
236.2650099054168
 30
0.0
  0
VERTEX
  5
29E
  8
LAYER_1
 10
273.1636937915822
 20
237.4556804309556
 30
0.0
  0
VERTEX
  5
29F
  8
LAYER_1
 10
272.4471951210647
 20
238.6247871266984
 30
0.0
  0
VERTEX
  5
2A0
  8
LAYER_1
 10
271.6943510533087
 20
239.7720630159325
 30
0.0
  0
VERTEX
  5
2A1
  8
LAYER_1
 10
270.9062822854388
 20
240.8973038823184
 30
0.0
  0
VERTEX
  5
2A2
  8
LAYER_1
 10
270.0840620695157
 20
242.0003589624845
 30
0.0
  0
VERTEX
  5
2A3
  8
LAYER_1
 10
269.2287148033278
 20
243.0811220332704
 30
0.0
  0
VERTEX
  5
2A4
  8
LAYER_1
 10
268.3412157178167
 20
244.1395230699869
 30
0.0
  0
VERTEX
  5
2A5
  8
LAYER_1
 10
267.4224915022272
 20
245.1755205682435
 30
0.0
  0
VERTEX
  5
2A6
  8
LAYER_1
 10
266.4734216818828
 20
246.1890946061773
 30
0.0
  0
VERTEX
  5
2A7
  8
LAYER_1
 10
265.4948405425306
 20
247.1802406601797
 30
0.0
  0
VERTEX
  5
2A8
  8
LAYER_1
 10
264.4875394982295
 20
248.1489641872191
 30
0.0
  0
VERTEX
  5
2A9
  8
LAYER_1
 10
263.4522697176793
 20
249.0952759318476
 30
0.0
  0
VERTEX
  5
2AA
  8
LAYER_1
 10
262.389744948748
 20
250.01918792035
 30
0.0
  0
VERTEX
  5
2AB
  8
LAYER_1
 10
261.3006443953849
 20
250.9207100957589
 30
0.0
  0
VERTEX
  5
2AC
  8
LAYER_1
 10
260.1856156242205
 20
251.7998475430956
 30
0.0
  0
VERTEX
  5
2AD
  8
LAYER_1
 10
259.0452774083018
 20
252.6565982122862
 30
0.0
  0
VERTEX
  5
2AE
  8
LAYER_1
 10
257.8802224739114
 20
253.4909511282764
 30
0.0
  0
VERTEX
  5
2AF
  8
LAYER_1
 10
256.6910201321365
 20
254.3028849748385
 30
0.0
  0
VERTEX
  5
2B0
  8
LAYER_1
 10
255.4782187471641
 20
255.092367052073
 30
0.0
  0
VERTEX
  5
2B1
  8
LAYER_1
 10
254.2423480631327
 20
255.8593525080665
 30
0.0
  0
VERTEX
  5
2B2
  8
LAYER_1
 10
252.9839213467561
 20
256.6037838307399
 30
0.0
  0
VERTEX
  5
2B3
  8
LAYER_1
 10
251.7034373797718
 20
257.3255905527345
 30
0.0
  0
VERTEX
  5
2B4
  8
LAYER_1
 10
250.4013822715273
 20
258.0246891186995
 30
0.0
  0
VERTEX
  5
2B5
  8
LAYER_1
 10
249.0782311257566
 20
258.7009829097384
 30
0.0
  0
VERTEX
  5
2B6
  8
LAYER_1
 10
247.7344495475767
 20
259.354362360407
 30
0.0
  0
VERTEX
  5
2B7
  8
LAYER_1
 10
246.3704950160239
 20
259.9847051822304
 30
0.0
  0
VERTEX
  5
2B8
  8
LAYER_1
 10
244.9868181107807
 20
260.5918766535775
 30
0.0
  0
VERTEX
  5
2B9
  8
LAYER_1
 10
243.5838636393668
 20
261.175729963668
 30
0.0
  0
VERTEX
  5
2BA
  8
LAYER_1
 10
242.1620716298706
 20
261.7361065845195
 30
0.0
  0
VERTEX
  5
2BB
  8
LAYER_1
 10
240.7218782372432
 20
262.2728366882963
 30
0.0
  0
VERTEX
  5
2BC
  8
LAYER_1
 10
239.2637165456903
 20
262.7857395716434
 30
0.0
  0
VERTEX
  5
2BD
  8
LAYER_1
 10
237.7880172999061
 20
263.2746240939902
 30
0.0
  0
VERTEX
  5
2BE
  8
LAYER_1
 10
236.2952095529248
 20
263.7392891158539
 30
0.0
  0
VERTEX
  5
2BF
  8
LAYER_1
 10
234.7857212506709
 20
264.1795239458748
 30
0.0
  0
VERTEX
  5
2C0
  8
LAYER_1
 10
233.2599797562647
 20
264.5951087721347
 30
0.0
  0
VERTEX
  5
2C1
  8
LAYER_1
 10
231.7184123249966
 20
264.9858150917295
 30
0.0
  0
VERTEX
  5
2C2
  8
LAYER_1
 10
230.1614465247325
 20
265.3514061403417
 30
0.0
  0
VERTEX
  5
2C3
  8
LAYER_1
 10
228.5895106279416
 20
265.6916372991124
 30
0.0
  0
VERTEX
  5
2C4
  8
LAYER_1
 10
227.0030339543949
 20
266.0062564927808
 30
0.0
  0
VERTEX
  5
2C5
  8
LAYER_1
 10
225.4024471911611
 20
266.2950045808408
 30
0.0
  0
VERTEX
  5
2C6
  8
LAYER_1
 10
223.788182681826
 20
266.557615745203
 30
0.0
  0
VERTEX
  5
2C7
  8
LAYER_1
 10
222.1606746912652
 20
266.7938178446799
 30
0.0
  0
VERTEX
  5
2C8
  8
LAYER_1
 10
220.5203596483692
 20
267.0033327834404
 30
0.0
  0
VERTEX
  5
2C9
  8
LAYER_1
 10
218.8676763719626
 20
267.1858768567632
 30
0.0
  0
VERTEX
  5
2CA
  8
LAYER_1
 10
217.2030662781684
 20
267.3411610915515
 30
0.0
  0
VERTEX
  5
2CB
  8
LAYER_1
 10
215.5269735745673
 20
267.4688915816092
 30
0.0
  0
VERTEX
  5
2CC
  8
LAYER_1
 10
213.8398454392949
 20
267.5687698124399
 30
0.0
  0
VERTEX
  5
2CD
  8
LAYER_1
 10
212.1421321904267
 20
267.6404929808065
 30
0.0
  0
VERTEX
  5
2CE
  8
LAYER_1
 10
210.4342874419375
 20
267.6837543160378
 30
0.0
  0
SEQEND
  5
826
  8
LAYER_1
  0
POLYLINE
  5
62
  8
LAYER_1
 66
     1
 10
0.0
 20
0.0
 30
0.0
  0
VERTEX
  5
2CF
  8
LAYER_1
 10
156.1330666187927
 20
184.475063573425
 30
0.0
 42
-0.2593718016696534
  0
VERTEX
  5
2D0
  8
LAYER_1
 10
141.4872217786872
 20
145.3983283814836
 30
0.0
  0
SEQEND
  5
827
  8
LAYER_1
  0
POLYLINE
  5
63
  8
LAYER_1
 66
     1
 10
0.0
 20
0.0
 30
0.0
  0
VERTEX
  5
2D1
  8
LAYER_1
 10
261.3004853471699
 20
184.4749733274912
 30
0.0
 42
0.2593718016696534
  0
VERTEX
  5
2D2
  8
LAYER_1
 10
275.9463301872754
 20
145.3982832585167
 30
0.0
  0
VERTEX
  5
2D3
  8
LAYER_1
 10
141.4872217786872
 20
145.3983283814836
 30
0.0
  0
SEQEND
  5
828
  8
LAYER_1
  0
POLYLINE
  5
64
  8
LAYER_1
 66
     1
 10
0.0
 20
0.0
 30
0.0
 70
     1
  0
VERTEX
  5
2D4
  8
LAYER_1
 10
163.716855507082
 20
195.2314326078007
 30
0.0
  0
VERTEX
  5
2D5
  8
LAYER_1
 10
253.716855507082
 20
195.2314326078007
 30
0.0
  0
VERTEX
  5
2D6
  8
LAYER_1
 10
253.716855507082
 20
285.2314326078007
 30
0.0
  0
VERTEX
  5
2D7
  8
LAYER_1
 10
163.716855507082
 20
285.2314326078007
 30
0.0
  0
SEQEND
  5
829
  8
LAYER_1
  0
POLYLINE
  5
65
  8
LAYER_1
 66
     1
 10
0.0
 20
0.0
 30
0.0
 70
     1
  0
VERTEX
  5
2D8
  8
LAYER_1
 10
-273.6405663312645
 20
-16.77846100543302
 30
0.0
 42
0.2347565457644001
  0
VERTEX
  5
2D9
  8
LAYER_1
 10
-261.9056397338899
 20
-53.13779321677315
 30
0.0
 42
-0.6703992534671155
  0
VERTEX
  5
2DA
  8
LAYER_1
 10
-263.0796313358304
 20
-55.85519482655127
 30
0.0
  0
VERTEX
  5
2DB
  8
LAYER_1
 10
-389.3995094238559
 20
-55.85515243501867
 30
0.0
 42
-0.6768451385430707
  0
VERTEX
  5
2DC
  8
LAYER_1
 10
-390.5035884642323
 20
-53.09726053942863
 30
0.0
 42
0.2344091071340881
  0
VERTEX
  5
2DD
  8
LAYER_1
 10
-378.8080645837498
 20
-16.77841588246613
 30
0.0
  0
VERTEX
  5
2DE
  8
LAYER_1
 10
-379.8971651371129
 20
-15.87689370705723
 30
0.0
  0
VERTEX
  5
2DF
  8
LAYER_1
 10
-380.9596899060442
 20
-14.95298171855486
 30
0.0
  0
VERTEX
  5
2E0
  8
LAYER_1
 10
-381.9949596865944
 20
-14.00666997392639
 30
0.0
  0
VERTEX
  5
2E1
  8
LAYER_1
 10
-383.0022607308956
 20
-13.03794644688699
 30
0.0
  0
VERTEX
  5
2E2
  8
LAYER_1
 10
-383.9808418702478
 20
-12.04680039288453
 30
0.0
  0
VERTEX
  5
2E3
  8
LAYER_1
 10
-384.9299116905922
 20
-11.03322635495081
 30
0.0
  0
VERTEX
  5
2E4
  8
LAYER_1
 10
-385.8486359061817
 20
-9.997228856694191
 30
0.0
  0
VERTEX
  5
2E5
  8
LAYER_1
 10
-386.7361349916928
 20
-8.938827819977659
 30
0.0
  0
VERTEX
  5
2E6
  8
LAYER_1
 10
-387.5914822578807
 20
-7.858064749191753
 30
0.0
  0
VERTEX
  5
2E7
  8
LAYER_1
 10
-388.4137024738039
 20
-6.755009669025668
 30
0.0
  0
VERTEX
  5
2E8
  8
LAYER_1
 10
-389.2017712416738
 20
-5.629768802639802
 30
0.0
  0
VERTEX
  5
2E9
  8
LAYER_1
 10
-389.9546153094299
 20
-4.482492913405652
 30
0.0
  0
VERTEX
  5
2EA
  8
LAYER_1
 10
-390.6711139799473
 20
-3.31338621766284
 30
0.0
  0
VERTEX
  5
2EB
  8
LAYER_1
 10
-391.3501018735725
 20
-2.122715692124105
 30
0.0
  0
VERTEX
  5
2EC
  8
LAYER_1
 10
-391.9903731714613
 20
-0.9108205777311311
 30
0.0
  0
VERTEX
  5
2ED
  8
LAYER_1
 10
-392.5906875440297
 20
0.3218782151515946
 30
0.0
  0
VERTEX
  5
2EE
  8
LAYER_1
 10
-393.1497778500808
 20
1.574869131988601
 30
0.0
  0
VERTEX
  5
2EF
  8
LAYER_1
 10
-393.666359695667
 20
2.847541816560773
 30
0.0
  0
VERTEX
  5
2F0
  8
LAYER_1
 10
-394.1391428055387
 20
4.139180217723118
 30
0.0
  0
VERTEX
  5
2F1
  8
LAYER_1
 10
-394.5668440989131
 20
5.448957405721526
 30
0.0
  0
VERTEX
  5
2F2
  8
LAYER_1
 10
-394.9482022565236
 20
6.775932574789262
 30
0.0
  0
VERTEX
  5
2F3
  8
LAYER_1
 10
-395.2819934035098
 20
8.119050638894773
 30
0.0
  0
VERTEX
  5
2F4
  8
LAYER_1
 10
-395.5670474715909
 20
9.477144797389851
 30
0.0
  0
VERTEX
  5
2F5
  8
LAYER_1
 10
-395.8022646695055
 20
10.84894231284758
 30
0.0
  0
VERTEX
  5
2F6
  8
LAYER_1
 10
-395.9866314103739
 20
12.2330736257272
 30
0.0
  0
VERTEX
  5
2F7
  8
LAYER_1
 10
-396.119235013207
 20
13.62808475009566
 30
0.0
  0
VERTEX
  5
2F8
  8
LAYER_1
 10
-396.1992764713387
 20
15.03245272137698
 30
0.0
  0
VERTEX
  5
2F9
  8
LAYER_1
 10
-396.2260769466549
 20
16.44440737870079
 30
0.0
  0
VERTEX
  5
2FA
  8
LAYER_1
 10
-396.1992764713387
 20
17.85636203602459
 30
0.0
  0
VERTEX
  5
2FB
  8
LAYER_1
 10
-396.119235013207
 20
19.26073000730591
 30
0.0
  0
VERTEX
  5
2FC
  8
LAYER_1
 10
-395.9866314103739
 20
20.65574113167438
 30
0.0
  0
VERTEX
  5
2FD
  8
LAYER_1
 10
-395.8022646695055
 20
22.03987244455399
 30
0.0
  0
VERTEX
  5
2FE
  8
LAYER_1
 10
-395.5670474715909
 20
23.41166996001172
 30
0.0
  0
VERTEX
  5
2FF
  8
LAYER_1
 10
-395.2819934035098
 20
24.7697641185068
 30
0.0
  0
VERTEX
  5
300
  8
LAYER_1
 10
-394.9482022565236
 20
26.11288218261231
 30
0.0
  0
VERTEX
  5
301
  8
LAYER_1
 10
-394.5668440989131
 20
27.43985735168005
 30
0.0
  0
VERTEX
  5
302
  8
LAYER_1
 10
-394.1391428055387
 20
28.74963453967846
 30
0.0
  0
VERTEX
  5
303
  8
LAYER_1
 10
-393.666359695667
 20
30.04127294084081
 30
0.0
  0
VERTEX
  5
304
  8
LAYER_1
 10
-393.1497778500808
 20
31.31394562541298
 30
0.0
  0
VERTEX
  5
305
  8
LAYER_1
 10
-392.5906875440297
 20
32.56693654224998
 30
0.0
  0
VERTEX
  5
306
  8
LAYER_1
 10
-391.9903731714613
 20
33.79963533513271
 30
0.0
  0
VERTEX
  5
307
  8
LAYER_1
 10
-391.3501018735725
 20
35.01153044952568
 30
0.0
  0
VERTEX
  5
308
  8
LAYER_1
 10
-390.6711139799473
 20
36.20220097506441
 30
0.0
  0
VERTEX
  5
309
  8
LAYER_1
 10
-389.9546153094299
 20
37.37130767080722
 30
0.0
  0
VERTEX
  5
30A
  8
LAYER_1
 10
-389.2017712416738
 20
38.51858356004137
 30
0.0
  0
VERTEX
  5
30B
  8
LAYER_1
 10
-388.4137024738039
 20
39.64382442642724
 30
0.0
  0
VERTEX
  5
30C
  8
LAYER_1
 10
-387.5914822578807
 20
40.74687950659332
 30
0.0
  0
VERTEX
  5
30D
  8
LAYER_1
 10
-386.7361349916928
 20
41.82764257737922
 30
0.0
  0
VERTEX
  5
30E
  8
LAYER_1
 10
-385.8486359061817
 20
42.88604361409575
 30
0.0
  0
VERTEX
  5
30F
  8
LAYER_1
 10
-384.9299116905922
 20
43.92204111235237
 30
0.0
  0
VERTEX
  5
310
  8
LAYER_1
 10
-383.9808418702478
 20
44.9356151502861
 30
0.0
  0
VERTEX
  5
311
  8
LAYER_1
 10
-383.0022607308956
 20
45.92676120428855
 30
0.0
  0
VERTEX
  5
312
  8
LAYER_1
 10
-381.9949596865944
 20
46.89548473132795
 30
0.0
  0
VERTEX
  5
313
  8
LAYER_1
 10
-380.9596899060442
 20
47.84179647595643
 30
0.0
  0
VERTEX
  5
314
  8
LAYER_1
 10
-379.8971651371129
 20
48.7657084644588
 30
0.0
  0
VERTEX
  5
315
  8
LAYER_1
 10
-378.8080645837498
 20
49.6672306398677
 30
0.0
  0
VERTEX
  5
316
  8
LAYER_1
 10
-377.6930358125854
 20
50.54636808720439
 30
0.0
  0
VERTEX
  5
317
  8
LAYER_1
 10
-376.5526975966667
 20
51.40311875639505
 30
0.0
  0
VERTEX
  5
318
  8
LAYER_1
 10
-375.3876426622763
 20
52.23747167238521
 30
0.0
  0
VERTEX
  5
319
  8
LAYER_1
 10
-374.1984403205014
 20
53.04940551894738
 30
0.0
  0
VERTEX
  5
31A
  8
LAYER_1
 10
-372.985638935529
 20
53.83888759618181
 30
0.0
  0
VERTEX
  5
31B
  8
LAYER_1
 10
-371.7497682514976
 20
54.60587305217537
 30
0.0
  0
VERTEX
  5
31C
  8
LAYER_1
 10
-370.4913415351209
 20
55.3503043748487
 30
0.0
  0
VERTEX
  5
31D
  8
LAYER_1
 10
-369.2108575681366
 20
56.07211109684336
 30
0.0
  0
VERTEX
  5
31E
  8
LAYER_1
 10
-367.9088024598921
 20
56.77120966280832
 30
0.0
  0
VERTEX
  5
31F
  8
LAYER_1
 10
-366.5856513141214
 20
57.44750345384723
 30
0.0
  0
VERTEX
  5
320
  8
LAYER_1
 10
-365.2418697359415
 20
58.10088290451581
 30
0.0
  0
VERTEX
  5
321
  8
LAYER_1
 10
-363.8779152043886
 20
58.73122572633925
 30
0.0
  0
VERTEX
  5
322
  8
LAYER_1
 10
-362.4942382991454
 20
59.33839719768635
 30
0.0
  0
VERTEX
  5
323
  8
LAYER_1
 10
-361.0912838277314
 20
59.92225050777684
 30
0.0
  0
VERTEX
  5
324
  8
LAYER_1
 10
-359.6694918182353
 20
60.48262712862829
 30
0.0
  0
VERTEX
  5
325
  8
LAYER_1
 10
-358.2292984256079
 20
61.01935723240508
 30
0.0
  0
VERTEX
  5
326
  8
LAYER_1
 10
-356.7711367340549
 20
61.53226011575221
 30
0.0
  0
VERTEX
  5
327
  8
LAYER_1
 10
-355.2954374882707
 20
62.02114463809899
 30
0.0
  0
VERTEX
  5
328
  8
LAYER_1
 10
-353.8026297412894
 20
62.48580965996275
 30
0.0
  0
VERTEX
  5
329
  8
LAYER_1
 10
-352.2931414390355
 20
62.92604448998368
 30
0.0
  0
VERTEX
  5
32A
  8
LAYER_1
 10
-350.7673999446292
 20
63.34162931624356
 30
0.0
  0
VERTEX
  5
32B
  8
LAYER_1
 10
-349.2258325133612
 20
63.73233563583831
 30
0.0
  0
VERTEX
  5
32C
  8
LAYER_1
 10
-347.668866713097
 20
64.09792668445057
 30
0.0
  0
VERTEX
  5
32D
  8
LAYER_1
 10
-346.0969308163062
 20
64.43815784322119
 30
0.0
  0
VERTEX
  5
32E
  8
LAYER_1
 10
-344.5104541427595
 20
64.75277703688967
 30
0.0
  0
VERTEX
  5
32F
  8
LAYER_1
 10
-342.9098673795255
 20
65.04152512494962
 30
0.0
  0
VERTEX
  5
330
  8
LAYER_1
 10
-341.2956028701905
 20
65.30413628931178
 30
0.0
  0
VERTEX
  5
331
  8
LAYER_1
 10
-339.6680948796296
 20
65.54033838878873
 30
0.0
  0
VERTEX
  5
332
  8
LAYER_1
 10
-338.0277798367337
 20
65.74985332754927
 30
0.0
  0
VERTEX
  5
333
  8
LAYER_1
 10
-336.3750965603269
 20
65.93239740087206
 30
0.0
  0
VERTEX
  5
334
  8
LAYER_1
 10
-334.7104864665328
 20
66.08768163566033
 30
0.0
  0
VERTEX
  5
335
  8
LAYER_1
 10
-333.0343937629316
 20
66.21541212571806
 30
0.0
  0
VERTEX
  5
336
  8
LAYER_1
 10
-331.3472656276592
 20
66.31529035654872
 30
0.0
  0
VERTEX
  5
337
  8
LAYER_1
 10
-329.649552378791
 20
66.3870135249153
 30
0.0
  0
VERTEX
  5
338
  8
LAYER_1
 10
-327.9417076303018
 20
66.43027486014667
 30
0.0
  0
VERTEX
  5
339
  8
LAYER_1
 10
-326.2242756954531
 20
66.44476320724247
 30
0.0
  0
VERTEX
  5
33A
  8
LAYER_1
 10
-324.5068437606043
 20
66.43027486014667
 30
0.0
  0
VERTEX
  5
33B
  8
LAYER_1
 10
-322.7989990121152
 20
66.3870135249153
 30
0.0
  0
VERTEX
  5
33C
  8
LAYER_1
 10
-321.101285763247
 20
66.31529035654872
 30
0.0
  0
VERTEX
  5
33D
  8
LAYER_1
 10
-319.4141576279746
 20
66.21541212571806
 30
0.0
  0
VERTEX
  5
33E
  8
LAYER_1
 10
-317.7380649243735
 20
66.08768163566033
 30
0.0
  0
VERTEX
  5
33F
  8
LAYER_1
 10
-316.0734548305793
 20
65.93239740087206
 30
0.0
  0
VERTEX
  5
340
  8
LAYER_1
 10
-314.4207715541726
 20
65.74985332754927
 30
0.0
  0
VERTEX
  5
341
  8
LAYER_1
 10
-312.7804565112767
 20
65.54033838878873
 30
0.0
  0
VERTEX
  5
342
  8
LAYER_1
 10
-311.1529485207159
 20
65.30413628931178
 30
0.0
  0
VERTEX
  5
343
  8
LAYER_1
 10
-309.5386840113808
 20
65.04152512494962
 30
0.0
  0
VERTEX
  5
344
  8
LAYER_1
 10
-307.9380972481469
 20
64.75277703688967
 30
0.0
  0
VERTEX
  5
345
  8
LAYER_1
 10
-306.3516205746002
 20
64.43815784322119
 30
0.0
  0
VERTEX
  5
346
  8
LAYER_1
 10
-304.7796846778094
 20
64.09792668445057
 30
0.0
  0
VERTEX
  5
347
  8
LAYER_1
 10
-303.2227188775452
 20
63.73233563583831
 30
0.0
  0
VERTEX
  5
348
  8
LAYER_1
 10
-301.6811514462772
 20
63.34162931624356
 30
0.0
  0
VERTEX
  5
349
  8
LAYER_1
 10
-300.155409951871
 20
62.92604448998368
 30
0.0
  0
VERTEX
  5
34A
  8
LAYER_1
 10
-298.6459216496171
 20
62.48580965996275
 30
0.0
  0
VERTEX
  5
34B
  8
LAYER_1
 10
-297.1531139026358
 20
62.02114463809899
 30
0.0
  0
VERTEX
  5
34C
  8
LAYER_1
 10
-295.6774146568516
 20
61.53226011575221
 30
0.0
  0
VERTEX
  5
34D
  8
LAYER_1
 10
-294.2192529652987
 20
61.01935723240508
 30
0.0
  0
VERTEX
  5
34E
  8
LAYER_1
 10
-292.7790595726713
 20
60.48262712862829
 30
0.0
  0
VERTEX
  5
34F
  8
LAYER_1
 10
-291.3572675631751
 20
59.92225050777684
 30
0.0
  0
VERTEX
  5
350
  8
LAYER_1
 10
-289.9543130917611
 20
59.33839719768635
 30
0.0
  0
VERTEX
  5
351
  8
LAYER_1
 10
-288.570636186518
 20
58.73122572633925
 30
0.0
  0
VERTEX
  5
352
  8
LAYER_1
 10
-287.2066816549652
 20
58.10088290451581
 30
0.0
  0
VERTEX
  5
353
  8
LAYER_1
 10
-285.8629000767853
 20
57.44750345384723
 30
0.0
  0
VERTEX
  5
354
  8
LAYER_1
 10
-284.5397489310146
 20
56.77120966280832
 30
0.0
  0
VERTEX
  5
355
  8
LAYER_1
 10
-283.2376938227701
 20
56.07211109684336
 30
0.0
  0
VERTEX
  5
356
  8
LAYER_1
 10
-281.9572098557858
 20
55.3503043748487
 30
0.0
  0
VERTEX
  5
357
  8
LAYER_1
 10
-280.6987831394092
 20
54.60587305217537
 30
0.0
  0
VERTEX
  5
358
  8
LAYER_1
 10
-279.4629124553778
 20
53.83888759618181
 30
0.0
  0
VERTEX
  5
359
  8
LAYER_1
 10
-278.2501110704054
 20
53.04940551894738
 30
0.0
  0
VERTEX
  5
35A
  8
LAYER_1
 10
-277.0609087286305
 20
52.23747167238521
 30
0.0
  0
VERTEX
  5
35B
  8
LAYER_1
 10
-275.8958537942401
 20
51.40311875639505
 30
0.0
  0
VERTEX
  5
35C
  8
LAYER_1
 10
-274.7555155783213
 20
50.54636808720439
 30
0.0
  0
VERTEX
  5
35D
  8
LAYER_1
 10
-273.6404868071569
 20
49.6672306398677
 30
0.0
  0
VERTEX
  5
35E
  8
LAYER_1
 10
-272.5513862537939
 20
48.7657084644588
 30
0.0
  0
VERTEX
  5
35F
  8
LAYER_1
 10
-271.4888614848626
 20
47.84179647595643
 30
0.0
  0
VERTEX
  5
360
  8
LAYER_1
 10
-270.4535917043124
 20
46.89548473132795
 30
0.0
  0
VERTEX
  5
361
  8
LAYER_1
 10
-269.4462906600112
 20
45.92676120428855
 30
0.0
  0
VERTEX
  5
362
  8
LAYER_1
 10
-268.4677095206591
 20
44.9356151502861
 30
0.0
  0
VERTEX
  5
363
  8
LAYER_1
 10
-267.5186397003146
 20
43.92204111235237
 30
0.0
  0
VERTEX
  5
364
  8
LAYER_1
 10
-266.5999154847252
 20
42.88604361409575
 30
0.0
  0
VERTEX
  5
365
  8
LAYER_1
 10
-265.7124163992141
 20
41.82764257737922
 30
0.0
  0
VERTEX
  5
366
  8
LAYER_1
 10
-264.8570691330262
 20
40.74687950659332
 30
0.0
  0
VERTEX
  5
367
  8
LAYER_1
 10
-264.034848917103
 20
39.64382442642724
 30
0.0
  0
VERTEX
  5
368
  8
LAYER_1
 10
-263.2467801492332
 20
38.51858356004137
 30
0.0
  0
VERTEX
  5
369
  8
LAYER_1
 10
-262.4939360814771
 20
37.37130767080722
 30
0.0
  0
VERTEX
  5
36A
  8
LAYER_1
 10
-261.7774374109596
 20
36.20220097506441
 30
0.0
  0
VERTEX
  5
36B
  8
LAYER_1
 10
-261.0984495173345
 20
35.01153044952568
 30
0.0
  0
VERTEX
  5
36C
  8
LAYER_1
 10
-260.4581782194457
 20
33.79963533513271
 30
0.0
  0
VERTEX
  5
36D
  8
LAYER_1
 10
-259.8578638468773
 20
32.56693654224998
 30
0.0
  0
VERTEX
  5
36E
  8
LAYER_1
 10
-259.2987735408262
 20
31.31394562541298
 30
0.0
  0
VERTEX
  5
36F
  8
LAYER_1
 10
-258.78219169524
 20
30.04127294084081
 30
0.0
  0
VERTEX
  5
370
  8
LAYER_1
 10
-258.3094085853684
 20
28.74963453967846
 30
0.0
  0
VERTEX
  5
371
  8
LAYER_1
 10
-257.881707291994
 20
27.43985735168005
 30
0.0
  0
VERTEX
  5
372
  8
LAYER_1
 10
-257.5003491343834
 20
26.11288218261231
 30
0.0
  0
VERTEX
  5
373
  8
LAYER_1
 10
-257.1665579873973
 20
24.7697641185068
 30
0.0
  0
VERTEX
  5
374
  8
LAYER_1
 10
-256.8815039193162
 20
23.41166996001172
 30
0.0
  0
VERTEX
  5
375
  8
LAYER_1
 10
-256.6462867214016
 20
22.03987244455399
 30
0.0
  0
VERTEX
  5
376
  8
LAYER_1
 10
-256.4619199805331
 20
20.65574113167438
 30
0.0
  0
VERTEX
  5
377
  8
LAYER_1
 10
-256.3293163777
 20
19.26073000730591
 30
0.0
  0
VERTEX
  5
378
  8
LAYER_1
 10
-256.2492749195683
 20
17.85636203602459
 30
0.0
  0
VERTEX
  5
379
  8
LAYER_1
 10
-256.2224744442522
 20
16.44440737870079
 30
0.0
  0
VERTEX
  5
37A
  8
LAYER_1
 10
-256.2492749195683
 20
15.03245272137698
 30
0.0
  0
VERTEX
  5
37B
  8
LAYER_1
 10
-256.3293163777
 20
13.62808475009566
 30
0.0
  0
VERTEX
  5
37C
  8
LAYER_1
 10
-256.4619199805331
 20
12.2330736257272
 30
0.0
  0
VERTEX
  5
37D
  8
LAYER_1
 10
-256.6462867214016
 20
10.84894231284758
 30
0.0
  0
VERTEX
  5
37E
  8
LAYER_1
 10
-256.8815039193162
 20
9.477144797389851
 30
0.0
  0
VERTEX
  5
37F
  8
LAYER_1
 10
-257.1665579873973
 20
8.119050638894773
 30
0.0
  0
VERTEX
  5
380
  8
LAYER_1
 10
-257.5003491343834
 20
6.775932574789262
 30
0.0
  0
VERTEX
  5
381
  8
LAYER_1
 10
-257.881707291994
 20
5.448957405721526
 30
0.0
  0
VERTEX
  5
382
  8
LAYER_1
 10
-258.3094085853684
 20
4.139180217723118
 30
0.0
  0
VERTEX
  5
383
  8
LAYER_1
 10
-258.78219169524
 20
2.847541816560773
 30
0.0
  0
VERTEX
  5
384
  8
LAYER_1
 10
-259.2987735408262
 20
1.574869131988601
 30
0.0
  0
VERTEX
  5
385
  8
LAYER_1
 10
-259.8578638468773
 20
0.3218782151515946
 30
0.0
  0
VERTEX
  5
386
  8
LAYER_1
 10
-260.4581782194457
 20
-0.9108205777311311
 30
0.0
  0
VERTEX
  5
387
  8
LAYER_1
 10
-261.0984495173345
 20
-2.122715692124105
 30
0.0
  0
VERTEX
  5
388
  8
LAYER_1
 10
-261.7774374109596
 20
-3.31338621766284
 30
0.0
  0
VERTEX
  5
389
  8
LAYER_1
 10
-262.4939360814771
 20
-4.482492913405652
 30
0.0
  0
VERTEX
  5
38A
  8
LAYER_1
 10
-263.2467801492332
 20
-5.629768802639802
 30
0.0
  0
VERTEX
  5
38B
  8
LAYER_1
 10
-264.034848917103
 20
-6.755009669025668
 30
0.0
  0
VERTEX
  5
38C
  8
LAYER_1
 10
-264.8570691330262
 20
-7.858064749191753
 30
0.0
  0
VERTEX
  5
38D
  8
LAYER_1
 10
-265.7124163992141
 20
-8.938827819977659
 30
0.0
  0
VERTEX
  5
38E
  8
LAYER_1
 10
-266.5999154847252
 20
-9.997228856694191
 30
0.0
  0
VERTEX
  5
38F
  8
LAYER_1
 10
-267.5186397003146
 20
-11.03322635495081
 30
0.0
  0
VERTEX
  5
390
  8
LAYER_1
 10
-268.4677095206591
 20
-12.04680039288453
 30
0.0
  0
VERTEX
  5
391
  8
LAYER_1
 10
-269.4462906600112
 20
-13.03794644688699
 30
0.0
  0
VERTEX
  5
392
  8
LAYER_1
 10
-270.4535917043124
 20
-14.00666997392639
 30
0.0
  0
VERTEX
  5
393
  8
LAYER_1
 10
-271.4888614848626
 20
-14.95298171855486
 30
0.0
  0
VERTEX
  5
394
  8
LAYER_1
 10
-272.5513862537939
 20
-15.87689370705723
 30
0.0
  0
SEQEND
  5
82A
  8
LAYER_1
  0
POLYLINE
  5
66
  8
LAYER_1
 66
     1
 10
0.0
 20
0.0
 30
0.0
  0
VERTEX
  5
395
  8
LAYER_1
 10
-281.2223009954882
 20
42.90115971423953
 30
0.0
  0
VERTEX
  5
396
  8
LAYER_1
 10
-281.7413719694263
 20
43.28820540155943
 30
0.0
  0
VERTEX
  5
397
  8
LAYER_1
 10
-282.2678275045106
 20
43.67070886944057
 30
0.0
  0
VERTEX
  5
398
  8
LAYER_1
 10
-282.8015930557409
 20
44.04862042121589
 30
0.0
  0
VERTEX
  5
399
  8
LAYER_1
 10
-283.3425940781163
 20
44.42189036021835
 30
0.0
  0
VERTEX
  5
39A
  8
LAYER_1
 10
-283.8907560266366
 20
44.79046898978093
 30
0.0
  0
VERTEX
  5
39B
  8
LAYER_1
 10
-284.4460043563009
 20
45.15430661323659
 30
0.0
  0
VERTEX
  5
39C
  8
LAYER_1
 10
-285.0082645221089
 20
45.51335353391828
 30
0.0
  0
VERTEX
  5
39D
  8
LAYER_1
 10
-285.5774619790599
 20
45.86756005515898
 30
0.0
  0
VERTEX
  5
39E
  8
LAYER_1
 10
-286.1535221821533
 20
46.21687648029163
 30
0.0
  0
VERTEX
  5
39F
  8
LAYER_1
 10
-286.7363705863887
 20
46.56125311264923
 30
0.0
  0
VERTEX
  5
3A0
  8
LAYER_1
 10
-287.3259326467655
 20
46.9006402555647
 30
0.0
  0
VERTEX
  5
3A1
  8
LAYER_1
 10
-287.9221338182831
 20
47.23498821237103
 30
0.0
  0
VERTEX
  5
3A2
  8
LAYER_1
 10
-288.5248995559409
 20
47.56424728640117
 30
0.0
  0
VERTEX
  5
3A3
  8
LAYER_1
 10
-289.1341553147385
 20
47.88836778098809
 30
0.0
  0
VERTEX
  5
3A4
  8
LAYER_1
 10
-289.7498265496752
 20
48.20729999946475
 30
0.0
  0
VERTEX
  5
3A5
  8
LAYER_1
 10
-290.3718387157505
 20
48.52099424516412
 30
0.0
  0
VERTEX
  5
3A6
  8
LAYER_1
 10
-291.0001172679639
 20
48.82940082141914
 30
0.0
  0
VERTEX
  5
3A7
  8
LAYER_1
 10
-291.6345876613147
 20
49.1324700315628
 30
0.0
  0
VERTEX
  5
3A8
  8
LAYER_1
 10
-292.9218057914266
 20
49.72239756684785
 30
0.0
  0
VERTEX
  5
3A9
  8
LAYER_1
 10
-294.2328967460817
 20
50.29037927768297
 30
0.0
  0
VERTEX
  5
3AA
  8
LAYER_1
 10
-295.5672641652756
 20
50.83601759073184
 30
0.0
  0
VERTEX
  5
3AB
  8
LAYER_1
 10
-296.9243116890038
 20
51.35891493265819
 30
0.0
  0
VERTEX
  5
3AC
  8
LAYER_1
 10
-298.303442957262
 20
51.8586737301257
 30
0.0
  0
VERTEX
  5
3AD
  8
LAYER_1
 10
-299.7040616100456
 20
52.33489640979809
 30
0.0
  0
VERTEX
  5
3AE
  8
LAYER_1
 10
-301.1255712873503
 20
52.78718539833906
 30
0.0
  0
VERTEX
  5
3AF
  8
LAYER_1
 10
-302.5673756291715
 20
53.21514312241229
 30
0.0
  0
VERTEX
  5
3B0
  8
LAYER_1
 10
-304.0288782755048
 20
53.6183720086815
 30
0.0
  0
VERTEX
  5
3B1
  8
LAYER_1
 10
-305.5094828663458
 20
53.99647448381039
 30
0.0
  0
VERTEX
  5
3B2
  8
LAYER_1
 10
-307.0085930416901
 20
54.34905297446265
 30
0.0
  0
VERTEX
  5
3B3
  8
LAYER_1
 10
-308.525612441533
 20
54.675709907302
 30
0.0
  0
VERTEX
  5
3B4
  8
LAYER_1
 10
-310.0599447058704
 20
54.97604770899213
 30
0.0
  0
VERTEX
  5
3B5
  8
LAYER_1
 10
-311.6109934746975
 20
55.24966880619674
 30
0.0
  0
VERTEX
  5
3B6
  8
LAYER_1
 10
-313.1781623880102
 20
55.49617562557954
 30
0.0
  0
VERTEX
  5
3B7
  8
LAYER_1
 10
-314.7608550858038
 20
55.71517059380422
 30
0.0
  0
VERTEX
  5
3B8
  8
LAYER_1
 10
-316.358475208074
 20
55.9062561375345
 30
0.0
  0
VERTEX
  5
3B9
  8
LAYER_1
 10
-317.9704263948162
 20
56.06903468343406
 30
0.0
  0
VERTEX
  5
3BA
  8
LAYER_1
 10
-319.596112286026
 20
56.20310865816661
 30
0.0
  0
VERTEX
  5
3BB
  8
LAYER_1
 10
-320.413919383305
 20
56.25925718967766
 30
0.0
  0
VERTEX
  5
3BC
  8
LAYER_1
 10
-321.2349365216991
 20
56.30808048839586
 30
0.0
  0
VERTEX
  5
3BD
  8
LAYER_1
 10
-322.059089156208
 20
56.34952885765415
 30
0.0
  0
VERTEX
  5
3BE
  8
LAYER_1
 10
-322.8863027418309
 20
56.3835526007855
 30
0.0
  0
VERTEX
  5
3BF
  8
LAYER_1
 10
-323.7165027335674
 20
56.41010202112287
 30
0.0
  0
VERTEX
  5
3C0
  8
LAYER_1
 10
-324.5496145864171
 20
56.42912742199924
 30
0.0
  0
VERTEX
  5
3C1
  8
LAYER_1
 10
-325.3855637553791
 20
56.44057910674755
 30
0.0
  0
VERTEX
  5
3C2
  8
LAYER_1
 10
-326.2242756954531
 20
56.44440737870077
 30
0.0
  0
VERTEX
  5
3C3
  8
LAYER_1
 10
-327.0629875975671
 20
56.44057910709428
 30
0.0
  0
VERTEX
  5
3C4
  8
LAYER_1
 10
-327.8989367288232
 20
56.42912742338163
 30
0.0
  0
VERTEX
  5
3C5
  8
LAYER_1
 10
-328.7320485442308
 20
56.41010202422311
 30
0.0
  0
VERTEX
  5
3C6
  8
LAYER_1
 10
-329.5622484987996
 20
56.38355260627901
 30
0.0
  0
VERTEX
  5
3C7
  8
LAYER_1
 10
-330.389462047539
 20
56.3495288662096
 30
0.0
  0
VERTEX
  5
3C8
  8
LAYER_1
 10
-331.2136146454588
 20
56.30808050067515
 30
0.0
  0
VERTEX
  5
3C9
  8
LAYER_1
 10
-332.0346317475685
 20
56.25925720633595
 30
0.0
  0
VERTEX
  5
3CA
  8
LAYER_1
 10
-332.8524388088777
 20
56.20310867985228
 30
0.0
  0
VERTEX
  5
3CB
  8
LAYER_1
 10
-334.4781246291325
 20
56.06903471709262
 30
0.0
  0
VERTEX
  5
3CC
  8
LAYER_1
 10
-336.0900757463003
 20
55.9062561856784
 30
0.0
  0
VERTEX
  5
3CD
  8
LAYER_1
 10
-337.6876958004575
 20
55.71517065889184
 30
0.0
  0
VERTEX
  5
3CE
  8
LAYER_1
 10
-339.2703884316809
 20
55.49617571001519
 30
0.0
  0
VERTEX
  5
3CF
  8
LAYER_1
 10
-340.837557280047
 20
55.24966891233066
 30
0.0
  0
VERTEX
  5
3D0
  8
LAYER_1
 10
-342.3886059856327
 20
54.97604783912048
 30
0.0
  0
VERTEX
  5
3D1
  8
LAYER_1
 10
-343.9229381885144
 20
54.67571006366688
 30
0.0
  0
VERTEX
  5
3D2
  8
LAYER_1
 10
-345.4399575287689
 20
54.3490531592521
 30
0.0
  0
VERTEX
  5
3D3
  8
LAYER_1
 10
-346.9390676464728
 20
53.99647469915835
 30
0.0
  0
VERTEX
  5
3D4
  8
LAYER_1
 10
-348.4196721817028
 20
53.61837225666787
 30
0.0
  0
VERTEX
  5
3D5
  8
LAYER_1
 10
-349.8811747745356
 20
53.21514340506288
 30
0.0
  0
VERTEX
  5
3D6
  8
LAYER_1
 10
-351.3229790650478
 20
52.78718571762561
 30
0.0
  0
VERTEX
  5
3D7
  8
LAYER_1
 10
-352.744488693316
 20
52.3348967676383
 30
0.0
  0
VERTEX
  5
3D8
  8
LAYER_1
 10
-354.145107299417
 20
51.85867412838316
 30
0.0
  0
VERTEX
  5
3D9
  8
LAYER_1
 10
-355.5242385234272
 20
51.35891537314242
 30
0.0
  0
VERTEX
  5
3DA
  8
LAYER_1
 10
-356.8812860054236
 20
50.83601807519833
 30
0.0
  0
VERTEX
  5
3DB
  8
LAYER_1
 10
-358.2156533854827
 20
50.29037980783308
 30
0.0
  0
VERTEX
  5
3DC
  8
LAYER_1
 10
-359.5267443036811
 20
49.72239814432893
 30
0.0
  0
VERTEX
  5
3DD
  8
LAYER_1
 10
-360.8139624000955
 20
49.13247065796811
 30
0.0
  0
VERTEX
  5
3DE
  8
LAYER_1
 10
-362.0767113148026
 20
48.52099492203283
 30
0.0
  0
VERTEX
  5
3DF
  8
LAYER_1
 10
-362.6987234665398
 20
48.20730070212545
 30
0.0
  0
VERTEX
  5
3E0
  8
LAYER_1
 10
-363.314394687879
 20
47.88836850980531
 30
0.0
  0
VERTEX
  5
3E1
  8
LAYER_1
 10
-363.9236504338297
 20
47.56424804173266
 30
0.0
  0
VERTEX
  5
3E2
  8
LAYER_1
 10
-364.5264161594014
 20
47.2349889945678
 30
0.0
  0
VERTEX
  5
3E3
  8
LAYER_1
 10
-365.1226173196037
 20
46.900641064971
 30
0.0
  0
VERTEX
  5
3E4
  8
LAYER_1
 10
-365.7121793694464
 20
46.56125394960252
 30
0.0
  0
VERTEX
  5
3E5
  8
LAYER_1
 10
-366.2950277639389
 20
46.21687734512267
 30
0.0
  0
VERTEX
  5
3E6
  8
LAYER_1
 10
-366.8710879580907
 20
45.86756094819171
 30
0.0
  0
VERTEX
  5
3E7
  8
LAYER_1
 10
-367.4402854069116
 20
45.51335445546992
 30
0.0
  0
VERTEX
  5
3E8
  8
LAYER_1
 10
-368.002545565411
 20
45.15430756361758
 30
0.0
  0
VERTEX
  5
3E9
  8
LAYER_1
 10
-368.5577938885986
 20
44.79046996929497
 30
0.0
  0
VERTEX
  5
3EA
  8
LAYER_1
 10
-369.1059558314839
 20
44.42189136916237
 30
0.0
  0
VERTEX
  5
3EB
  8
LAYER_1
 10
-369.6469568490765
 20
44.04862145988005
 30
0.0
  0
VERTEX
  5
3EC
  8
LAYER_1
 10
-370.180722396386
 20
43.6707099381083
 30
0.0
  0
VERTEX
  5
3ED
  8
LAYER_1
 10
-370.7071779284221
 20
43.28820650050739
 30
0.0
  0
VERTEX
  5
3EE
  8
LAYER_1
 10
-371.2262489001942
 20
42.90116084373759
 30
0.0
  0
SEQEND
  5
82B
  8
LAYER_1
  0
POLYLINE
  5
67
  8
LAYER_1
 66
     1
 10
0.0
 20
0.0
 30
0.0
  0
VERTEX
  5
3EF
  8
LAYER_1
 10
-371.2242756954604
 20
54.91673193132669
 30
0.0
  0
VERTEX
  5
3F0
  8
LAYER_1
 10
-371.2242756954604
 20
-6.022046848090419
 30
0.0
  0
VERTEX
  5
3F1
  8
LAYER_1
 10
-281.2242756954599
 20
-6.022046848090419
 30
0.0
  0
VERTEX
  5
3F2
  8
LAYER_1
 10
-281.2242756954599
 20
54.91673193133391
 30
0.0
  0
SEQEND
  5
82C
  8
LAYER_1
  0
POLYLINE
  5
68
  8
LAYER_1
 66
     1
 10
0.0
 20
0.0
 30
0.0
 70
     1
  0
VERTEX
  5
3F3
  8
LAYER_1
 10
-190.1801439050437
 20
-61.44906806425301
 30
0.0
  0
VERTEX
  5
3F4
  8
LAYER_1
 10
-188.6315169253145
 20
-61.43600376641946
 30
0.0
  0
VERTEX
  5
3F5
  8
LAYER_1
 10
-187.0925518632428
 20
-61.39702031246378
 30
0.0
  0
VERTEX
  5
3F6
  8
LAYER_1
 10
-185.5637199578047
 20
-61.33243186170347
 30
0.0
  0
VERTEX
  5
3F7
  8
LAYER_1
 10
-184.0454924479764
 20
-61.242552573456
 30
0.0
  0
VERTEX
  5
3F8
  8
LAYER_1
 10
-182.5383405727343
 20
-61.12769660703885
 30
0.0
  0
VERTEX
  5
3F9
  8
LAYER_1
 10
-181.0427355710545
 20
-60.98817812176951
 30
0.0
  0
VERTEX
  5
3FA
  8
LAYER_1
 10
-179.5591486819131
 20
-60.82431127696546
 30
0.0
  0
VERTEX
  5
3FB
  8
LAYER_1
 10
-178.0880511442866
 20
-60.63641023194417
 30
0.0
  0
VERTEX
  5
3FC
  8
LAYER_1
 10
-176.629914197151
 20
-60.42478914602313
 30
0.0
  0
VERTEX
  5
3FD
  8
LAYER_1
 10
-175.1852090794825
 20
-60.18976217851983
 30
0.0
  0
VERTEX
  5
3FE
  8
LAYER_1
 10
-173.7544070302576
 20
-59.93164348875173
 30
0.0
  0
VERTEX
  5
3FF
  8
LAYER_1
 10
-172.3379792884522
 20
-59.65074723603632
 30
0.0
  0
VERTEX
  5
400
  8
LAYER_1
 10
-170.9363970930427
 20
-59.3473875796911
 30
0.0
  0
VERTEX
  5
401
  8
LAYER_1
 10
-169.5501316830053
 20
-59.02187867903353
 30
0.0
  0
VERTEX
  5
402
  8
LAYER_1
 10
-168.1796542973162
 20
-58.67453469338109
 30
0.0
  0
VERTEX
  5
403
  8
LAYER_1
 10
-166.8254361749516
 20
-58.30566978205127
 30
0.0
  0
VERTEX
  5
404
  8
LAYER_1
 10
-165.4879485548877
 20
-57.91559810436155
 30
0.0
  0
VERTEX
  5
405
  8
LAYER_1
 10
-164.1676626761009
 20
-57.5046338196294
 30
0.0
  0
VERTEX
  5
406
  8
LAYER_1
 10
-162.8650497775672
 20
-57.07309108717233
 30
0.0
  0
VERTEX
  5
407
  8
LAYER_1
 10
-161.5805810982629
 20
-56.6212840663078
 30
0.0
  0
VERTEX
  5
408
  8
LAYER_1
 10
-160.3147278771643
 20
-56.1495269163533
 30
0.0
  0
VERTEX
  5
409
  8
LAYER_1
 10
-159.0679613532475
 20
-55.65813379662629
 30
0.0
  0
VERTEX
  5
40A
  8
LAYER_1
 10
-157.8407527654888
 20
-55.14741886644427
 30
0.0
  0
VERTEX
  5
40B
  8
LAYER_1
 10
-156.6335733528644
 20
-54.61769628512473
 30
0.0
  0
VERTEX
  5
40C
  8
LAYER_1
 10
-155.4468943543505
 20
-54.06928021198513
 30
0.0
  0
VERTEX
  5
40D
  8
LAYER_1
 10
-154.2811870089234
 20
-53.50248480634297
 30
0.0
  0
VERTEX
  5
40E
  8
LAYER_1
 10
-153.1369225555592
 20
-52.91762422751572
 30
0.0
  0
VERTEX
  5
40F
  8
LAYER_1
 10
-152.0145722332343
 20
-52.31501263482087
 30
0.0
  0
VERTEX
  5
410
  8
LAYER_1
 10
-150.9146072809247
 20
-51.69496418757589
 30
0.0
  0
VERTEX
  5
411
  8
LAYER_1
 10
-149.8374989376068
 20
-51.05779304509826
 30
0.0
  0
VERTEX
  5
412
  8
LAYER_1
 10
-148.7837184422567
 20
-50.40381336670548
 30
0.0
  0
VERTEX
  5
413
  8
LAYER_1
 10
-147.7537370338507
 20
-49.73333931171501
 30
0.0
  0
VERTEX
  5
414
  8
LAYER_1
 10
-146.748025951365
 20
-49.04668503944435
 30
0.0
  0
VERTEX
  5
415
  8
LAYER_1
 10
-145.7670564337758
 20
-48.34416470921097
 30
0.0
  0
VERTEX
  5
416
  8
LAYER_1
 10
-144.8112997200594
 20
-47.62609248033235
 30
0.0
  0
VERTEX
  5
417
  8
LAYER_1
 10
-143.8812270491919
 20
-46.89278251212598
 30
0.0
  0
VERTEX
  5
418
  8
LAYER_1
 10
-142.9773096601496
 20
-46.14454896390933
 30
0.0
  0
VERTEX
  5
419
  8
LAYER_1
 10
-142.1000187919088
 20
-45.38170599499988
 30
0.0
  0
VERTEX
  5
41A
  8
LAYER_1
 10
-141.2498256834455
 20
-44.60456776471513
 30
0.0
  0
VERTEX
  5
41B
  8
LAYER_1
 10
-140.4272015737361
 20
-43.81344843237255
 30
0.0
  0
VERTEX
  5
41C
  8
LAYER_1
 10
-139.6326177017568
 20
-43.00866215728962
 30
0.0
  0
VERTEX
  5
41D
  8
LAYER_1
 10
-139.245988117096
 20
-42.60124209100724
 30
0.0
  0
VERTEX
  5
41E
  8
LAYER_1
 10
-138.8665453064838
 20
-42.19052309878381
 30
0.0
  0
VERTEX
  5
41F
  8
LAYER_1
 10
-138.4943481747922
 20
-41.77654445053405
 30
0.0
  0
VERTEX
  5
420
  8
LAYER_1
 10
-138.1294556268933
 20
-41.35934541617263
 30
0.0
  0
VERTEX
  5
421
  8
LAYER_1
 10
-137.7719265676591
 20
-40.93896526561423
 30
0.0
  0
VERTEX
  5
422
  8
LAYER_1
 10
-137.4218199019616
 20
-40.51544326877355
 30
0.0
  0
VERTEX
  5
423
  8
LAYER_1
 10
-137.0791945346728
 20
-40.08881869556525
 30
0.0
  0
VERTEX
  5
424
  8
LAYER_1
 10
-136.7441093706647
 20
-39.65913081590404
 30
0.0
  0
VERTEX
  5
425
  8
LAYER_1
 10
-136.4166233148095
 20
-39.22641889970458
 30
0.0
  0
VERTEX
  5
426
  8
LAYER_1
 10
-136.0967952719791
 20
-38.79072221688158
 30
0.0
  0
VERTEX
  5
427
  8
LAYER_1
 10
-135.7846841470456
 20
-38.35208003734971
 30
0.0
  0
VERTEX
  5
428
  8
LAYER_1
 10
-135.4803488448809
 20
-37.91053163102366
 30
0.0
  0
VERTEX
  5
429
  8
LAYER_1
 10
-135.1838482703571
 20
-37.46611626781812
 30
0.0
  0
VERTEX
  5
42A
  8
LAYER_1
 10
-134.8952413283463
 20
-37.01887321764777
 30
0.0
  0
VERTEX
  5
42B
  8
LAYER_1
 10
-134.6145869237205
 20
-36.56884175042728
 30
0.0
  0
VERTEX
  5
42C
  8
LAYER_1
 10
-134.3419439613516
 20
-36.11606113607137
 30
0.0
  0
VERTEX
  5
42D
  8
LAYER_1
 10
-134.0773713461118
 20
-35.6605706444947
 30
0.0
  0
VERTEX
  5
42E
  8
LAYER_1
 10
-133.8209279828729
 20
-35.20240954561196
 30
0.0
  0
VERTEX
  5
42F
  8
LAYER_1
 10
-133.5726727765072
 20
-34.74161710933784
 30
0.0
  0
VERTEX
  5
430
  8
LAYER_1
 10
-133.3326646318866
 20
-34.27823260558702
 30
0.0
  0
VERTEX
  5
431
  8
LAYER_1
 10
-133.1009624538831
 20
-33.81229530427419
 30
0.0
  0
VERTEX
  5
432
  8
LAYER_1
 10
-132.8776251473687
 20
-33.34384447531403
 30
0.0
  0
VERTEX
  5
433
  8
LAYER_1
 10
-132.6627116172156
 20
-32.87291938862122
 30
0.0
  0
VERTEX
  5
434
  8
LAYER_1
 10
-132.4562807682956
 20
-32.39955931411045
 30
0.0
  0
VERTEX
  5
435
  8
LAYER_1
 10
-132.2583915054809
 20
-31.92380352169641
 30
0.0
  0
VERTEX
  5
436
  8
LAYER_1
 10
-132.0691027336435
 20
-31.44569128129379
 30
0.0
  0
VERTEX
  5
437
  8
LAYER_1
 10
-131.8884733576554
 20
-30.96526186281726
 30
0.0
  0
VERTEX
  5
438
  8
LAYER_1
 10
-131.7165622823885
 20
-30.48255453618152
 30
0.0
  0
VERTEX
  5
439
  8
LAYER_1
 10
-131.553428412715
 20
-29.99760857130124
 30
0.0
  0
VERTEX
  5
43A
  8
LAYER_1
 10
-131.399130653507
 20
-29.51046323809111
 30
0.0
  0
VERTEX
  5
43B
  8
LAYER_1
 10
-131.2537279096363
 20
-29.02115780646583
 30
0.0
  0
VERTEX
  5
43C
  8
LAYER_1
 10
-131.117279085975
 20
-28.52973154634006
 30
0.0
  0
VERTEX
  5
43D
  8
LAYER_1
 10
-130.9898430873952
 20
-28.03622372762851
 30
0.0
  0
VERTEX
  5
43E
  8
LAYER_1
 10
-130.871478818769
 20
-27.54067362024585
 30
0.0
  0
VERTEX
  5
43F
  8
LAYER_1
 10
-130.7622451849682
 20
-27.04312049410676
 30
0.0
  0
VERTEX
  5
440
  8
LAYER_1
 10
-130.662201090865
 20
-26.54360361912595
 30
0.0
  0
VERTEX
  5
441
  8
LAYER_1
 10
-130.5714054413313
 20
-26.04216226521808
 30
0.0
  0
VERTEX
  5
442
  8
LAYER_1
 10
-130.4899171412392
 20
-25.53883570229784
 30
0.0
  0
VERTEX
  5
443
  8
LAYER_1
 10
-130.4177950954608
 20
-25.03366320027992
 30
0.0
  0
VERTEX
  5
444
  8
LAYER_1
 10
-130.355098208868
 20
-24.52668402907901
 30
0.0
  0
VERTEX
  5
445
  8
LAYER_1
 10
-130.3018853863329
 20
-24.0179374586098
 30
0.0
  0
VERTEX
  5
446
  8
LAYER_1
 10
-130.2582155327275
 20
-23.50746275878695
 30
0.0
  0
VERTEX
  5
447
  8
LAYER_1
 10
-130.2241475529239
 20
-22.99529919952516
 30
0.0
  0
VERTEX
  5
448
  8
LAYER_1
 10
-130.199740351794
 20
-22.48148605073912
 30
0.0
  0
VERTEX
  5
449
  8
LAYER_1
 10
-130.18505283421
 20
-21.96606258234351
 30
0.0
  0
VERTEX
  5
44A
  8
LAYER_1
 10
-130.1801439050437
 20
-21.44906806425302
 30
0.0
  0
VERTEX
  5
44B
  8
LAYER_1
 10
-130.18505283421
 20
-20.93207354616253
 30
0.0
  0
VERTEX
  5
44C
  8
LAYER_1
 10
-130.199740351794
 20
-20.41665007776692
 30
0.0
  0
VERTEX
  5
44D
  8
LAYER_1
 10
-130.2241475529239
 20
-19.90283692898088
 30
0.0
  0
VERTEX
  5
44E
  8
LAYER_1
 10
-130.2582155327275
 20
-19.39067336971909
 30
0.0
  0
VERTEX
  5
44F
  8
LAYER_1
 10
-130.3018853863329
 20
-18.88019866989624
 30
0.0
  0
VERTEX
  5
450
  8
LAYER_1
 10
-130.355098208868
 20
-18.37145209942702
 30
0.0
  0
VERTEX
  5
451
  8
LAYER_1
 10
-130.4177950954608
 20
-17.86447292822611
 30
0.0
  0
VERTEX
  5
452
  8
LAYER_1
 10
-130.4899171412392
 20
-17.3593004262082
 30
0.0
  0
VERTEX
  5
453
  8
LAYER_1
 10
-130.5714054413313
 20
-16.85597386328796
 30
0.0
  0
VERTEX
  5
454
  8
LAYER_1
 10
-130.662201090865
 20
-16.35453250938009
 30
0.0
  0
VERTEX
  5
455
  8
LAYER_1
 10
-130.7622451849682
 20
-15.85501563439928
 30
0.0
  0
VERTEX
  5
456
  8
LAYER_1
 10
-130.871478818769
 20
-15.35746250826019
 30
0.0
  0
VERTEX
  5
457
  8
LAYER_1
 10
-130.9898430873952
 20
-14.86191240087753
 30
0.0
  0
VERTEX
  5
458
  8
LAYER_1
 10
-131.117279085975
 20
-14.36840458216598
 30
0.0
  0
VERTEX
  5
459
  8
LAYER_1
 10
-131.2537279096363
 20
-13.87697832204021
 30
0.0
  0
VERTEX
  5
45A
  8
LAYER_1
 10
-131.399130653507
 20
-13.38767289041493
 30
0.0
  0
VERTEX
  5
45B
  8
LAYER_1
 10
-131.553428412715
 20
-12.9005275572048
 30
0.0
  0
VERTEX
  5
45C
  8
LAYER_1
 10
-131.7165622823885
 20
-12.41558159232452
 30
0.0
  0
VERTEX
  5
45D
  8
LAYER_1
 10
-131.8884733576554
 20
-11.93287426568878
 30
0.0
  0
VERTEX
  5
45E
  8
LAYER_1
 10
-132.0691027336435
 20
-11.45244484721225
 30
0.0
  0
VERTEX
  5
45F
  8
LAYER_1
 10
-132.2583915054809
 20
-10.97433260680963
 30
0.0
  0
VERTEX
  5
460
  8
LAYER_1
 10
-132.4562807682956
 20
-10.49857681439559
 30
0.0
  0
VERTEX
  5
461
  8
LAYER_1
 10
-132.6627116172156
 20
-10.02521673988482
 30
0.0
  0
VERTEX
  5
462
  8
LAYER_1
 10
-132.8776251473687
 20
-9.554291653192017
 30
0.0
  0
VERTEX
  5
463
  8
LAYER_1
 10
-133.1009624538831
 20
-9.085840824231852
 30
0.0
  0
VERTEX
  5
464
  8
LAYER_1
 10
-133.3326646318866
 20
-8.619903522919017
 30
0.0
  0
VERTEX
  5
465
  8
LAYER_1
 10
-133.5726727765072
 20
-8.156519019168195
 30
0.0
  0
VERTEX
  5
466
  8
LAYER_1
 10
-133.8209279828729
 20
-7.695726582894073
 30
0.0
  0
VERTEX
  5
467
  8
LAYER_1
 10
-134.0773713461118
 20
-7.237565484011334
 30
0.0
  0
VERTEX
  5
468
  8
LAYER_1
 10
-134.3419439613516
 20
-6.782074992434664
 30
0.0
  0
VERTEX
  5
469
  8
LAYER_1
 10
-134.6145869237205
 20
-6.329294378078748
 30
0.0
  0
VERTEX
  5
46A
  8
LAYER_1
 10
-134.8952413283463
 20
-5.879262910858271
 30
0.0
  0
VERTEX
  5
46B
  8
LAYER_1
 10
-135.1838482703571
 20
-5.432019860687919
 30
0.0
  0
VERTEX
  5
46C
  8
LAYER_1
 10
-135.4803488448809
 20
-4.987604497482376
 30
0.0
  0
VERTEX
  5
46D
  8
LAYER_1
 10
-135.7846841470456
 20
-4.546056091156328
 30
0.0
  0
VERTEX
  5
46E
  8
LAYER_1
 10
-136.0967952719791
 20
-4.107413911624461
 30
0.0
  0
VERTEX
  5
46F
  8
LAYER_1
 10
-136.4166233148095
 20
-3.671717228801458
 30
0.0
  0
VERTEX
  5
470
  8
LAYER_1
 10
-136.7441093706647
 20
-3.239005312602006
 30
0.0
  0
VERTEX
  5
471
  8
LAYER_1
 10
-137.0791945346728
 20
-2.80931743294079
 30
0.0
  0
VERTEX
  5
472
  8
LAYER_1
 10
-137.4218199019616
 20
-2.382692859732494
 30
0.0
  0
VERTEX
  5
473
  8
LAYER_1
 10
-137.7719265676591
 20
-1.959170862891804
 30
0.0
  0
VERTEX
  5
474
  8
LAYER_1
 10
-138.1294556268933
 20
-1.538790712333404
 30
0.0
  0
VERTEX
  5
475
  8
LAYER_1
 10
-138.4943481747922
 20
-1.121591677971981
 30
0.0
  0
VERTEX
  5
476
  8
LAYER_1
 10
-138.8665453064838
 20
-0.7076130297222198
 30
0.0
  0
VERTEX
  5
477
  8
LAYER_1
 10
-139.6326177017568
 20
0.1105260287835788
 30
0.0
  0
VERTEX
  5
478
  8
LAYER_1
 10
-140.4272015737361
 20
0.9153123038665102
 30
0.0
  0
VERTEX
  5
479
  8
LAYER_1
 10
-141.2498256834455
 20
1.706431636209093
 30
0.0
  0
VERTEX
  5
47A
  8
LAYER_1
 10
-142.1000187919088
 20
2.483569866493846
 30
0.0
  0
VERTEX
  5
47B
  8
LAYER_1
 10
-142.9773096601496
 20
3.246412835403287
 30
0.0
  0
VERTEX
  5
47C
  8
LAYER_1
 10
-143.8812270491919
 20
3.994646383619936
 30
0.0
  0
VERTEX
  5
47D
  8
LAYER_1
 10
-144.8112997200594
 20
4.727956351826311
 30
0.0
  0
VERTEX
  5
47E
  8
LAYER_1
 10
-145.7670564337758
 20
5.44602858070493
 30
0.0
  0
VERTEX
  5
47F
  8
LAYER_1
 10
-146.748025951365
 20
6.148548910938313
 30
0.0
  0
VERTEX
  5
480
  8
LAYER_1
 10
-147.7537370338507
 20
6.835203183208979
 30
0.0
  0
VERTEX
  5
481
  8
LAYER_1
 10
-148.7837184422567
 20
7.505677238199445
 30
0.0
  0
VERTEX
  5
482
  8
LAYER_1
 10
-149.8374989376068
 20
8.159656916592231
 30
0.0
  0
VERTEX
  5
483
  8
LAYER_1
 10
-150.9146072809247
 20
8.796828059069854
 30
0.0
  0
VERTEX
  5
484
  8
LAYER_1
 10
-152.0145722332343
 20
9.416876506314836
 30
0.0
  0
VERTEX
  5
485
  8
LAYER_1
 10
-153.1369225555592
 20
10.01948809900969
 30
0.0
  0
VERTEX
  5
486
  8
LAYER_1
 10
-154.2811870089234
 20
10.60434867783694
 30
0.0
  0
VERTEX
  5
487
  8
LAYER_1
 10
-155.4468943543505
 20
11.1711440834791
 30
0.0
  0
VERTEX
  5
488
  8
LAYER_1
 10
-156.6335733528644
 20
11.7195601566187
 30
0.0
  0
VERTEX
  5
489
  8
LAYER_1
 10
-157.8407527654888
 20
12.24928273793824
 30
0.0
  0
VERTEX
  5
48A
  8
LAYER_1
 10
-159.0679613532475
 20
12.75999766812026
 30
0.0
  0
VERTEX
  5
48B
  8
LAYER_1
 10
-160.3147278771643
 20
13.25139078784726
 30
0.0
  0
VERTEX
  5
48C
  8
LAYER_1
 10
-161.5805810982629
 20
13.72314793780177
 30
0.0
  0
VERTEX
  5
48D
  8
LAYER_1
 10
-162.8650497775672
 20
14.1749549586663
 30
0.0
  0
VERTEX
  5
48E
  8
LAYER_1
 10
-164.1676626761009
 20
14.60649769112337
 30
0.0
  0
VERTEX
  5
48F
  8
LAYER_1
 10
-165.4879485548877
 20
15.01746197585551
 30
0.0
  0
VERTEX
  5
490
  8
LAYER_1
 10
-166.8254361749516
 20
15.40753365354523
 30
0.0
  0
VERTEX
  5
491
  8
LAYER_1
 10
-168.1796542973162
 20
15.77639856487505
 30
0.0
  0
VERTEX
  5
492
  8
LAYER_1
 10
-169.5501316830053
 20
16.12374255052749
 30
0.0
  0
VERTEX
  5
493
  8
LAYER_1
 10
-170.9363970930427
 20
16.44925145118506
 30
0.0
  0
VERTEX
  5
494
  8
LAYER_1
 10
-172.3379792884522
 20
16.75261110753029
 30
0.0
  0
VERTEX
  5
495
  8
LAYER_1
 10
-173.7544070302576
 20
17.0335073602457
 30
0.0
  0
VERTEX
  5
496
  8
LAYER_1
 10
-175.1852090794825
 20
17.2916260500138
 30
0.0
  0
VERTEX
  5
497
  8
LAYER_1
 10
-176.629914197151
 20
17.52665301751711
 30
0.0
  0
VERTEX
  5
498
  8
LAYER_1
 10
-178.0880511442866
 20
17.73827410343814
 30
0.0
  0
VERTEX
  5
499
  8
LAYER_1
 10
-179.5591486819131
 20
17.92617514845943
 30
0.0
  0
VERTEX
  5
49A
  8
LAYER_1
 10
-181.0427355710545
 20
18.09004199326349
 30
0.0
  0
VERTEX
  5
49B
  8
LAYER_1
 10
-182.5383405727343
 20
18.22956047853283
 30
0.0
  0
VERTEX
  5
49C
  8
LAYER_1
 10
-184.0454924479764
 20
18.34441644494998
 30
0.0
  0
VERTEX
  5
49D
  8
LAYER_1
 10
-185.5637199578047
 20
18.43429573319745
 30
0.0
  0
VERTEX
  5
49E
  8
LAYER_1
 10
-187.0925518632428
 20
18.49888418395776
 30
0.0
  0
VERTEX
  5
49F
  8
LAYER_1
 10
-188.6315169253145
 20
18.53786763791344
 30
0.0
  0
VERTEX
  5
4A0
  8
LAYER_1
 10
-190.1801439050437
 20
18.55093193574699
 30
0.0
  0
VERTEX
  5
4A1
  8
LAYER_1
 10
-191.7287708847728
 20
18.53786763791344
 30
0.0
  0
VERTEX
  5
4A2
  8
LAYER_1
 10
-193.2677359468446
 20
18.49888418395776
 30
0.0
  0
VERTEX
  5
4A3
  8
LAYER_1
 10
-194.7965678522827
 20
18.43429573319745
 30
0.0
  0
VERTEX
  5
4A4
  8
LAYER_1
 10
-196.3147953621109
 20
18.34441644494998
 30
0.0
  0
VERTEX
  5
4A5
  8
LAYER_1
 10
-197.8219472373531
 20
18.22956047853283
 30
0.0
  0
VERTEX
  5
4A6
  8
LAYER_1
 10
-199.3175522390329
 20
18.09004199326349
 30
0.0
  0
VERTEX
  5
4A7
  8
LAYER_1
 10
-200.8011391281743
 20
17.92617514845943
 30
0.0
  0
VERTEX
  5
4A8
  8
LAYER_1
 10
-202.2722366658008
 20
17.73827410343814
 30
0.0
  0
VERTEX
  5
4A9
  8
LAYER_1
 10
-203.7303736129364
 20
17.52665301751711
 30
0.0
  0
VERTEX
  5
4AA
  8
LAYER_1
 10
-205.1750787306048
 20
17.2916260500138
 30
0.0
  0
VERTEX
  5
4AB
  8
LAYER_1
 10
-206.6058807798298
 20
17.0335073602457
 30
0.0
  0
VERTEX
  5
4AC
  8
LAYER_1
 10
-208.0223085216352
 20
16.7526111075303
 30
0.0
  0
VERTEX
  5
4AD
  8
LAYER_1
 10
-209.4238907170447
 20
16.44925145118507
 30
0.0
  0
VERTEX
  5
4AE
  8
LAYER_1
 10
-210.8101561270821
 20
16.1237425505275
 30
0.0
  0
VERTEX
  5
4AF
  8
LAYER_1
 10
-212.1806335127712
 20
15.77639856487506
 30
0.0
  0
VERTEX
  5
4B0
  8
LAYER_1
 10
-213.5348516351358
 20
15.40753365354524
 30
0.0
  0
VERTEX
  5
4B1
  8
LAYER_1
 10
-214.8723392551997
 20
15.01746197585552
 30
0.0
  0
VERTEX
  5
4B2
  8
LAYER_1
 10
-216.1926251339866
 20
14.60649769112338
 30
0.0
  0
VERTEX
  5
4B3
  8
LAYER_1
 10
-217.4952380325202
 20
14.17495495866631
 30
0.0
  0
VERTEX
  5
4B4
  8
LAYER_1
 10
-218.7797067118245
 20
13.72314793780178
 30
0.0
  0
VERTEX
  5
4B5
  8
LAYER_1
 10
-220.0455599329231
 20
13.25139078784727
 30
0.0
  0
VERTEX
  5
4B6
  8
LAYER_1
 10
-221.2923264568399
 20
12.75999766812027
 30
0.0
  0
VERTEX
  5
4B7
  8
LAYER_1
 10
-222.5195350445986
 20
12.24928273793826
 30
0.0
  0
VERTEX
  5
4B8
  8
LAYER_1
 10
-223.726714457223
 20
11.71956015661871
 30
0.0
  0
VERTEX
  5
4B9
  8
LAYER_1
 10
-224.9133934557369
 20
11.17114408347912
 30
0.0
  0
VERTEX
  5
4BA
  8
LAYER_1
 10
-226.079100801164
 20
10.60434867783695
 30
0.0
  0
VERTEX
  5
4BB
  8
LAYER_1
 10
-227.2233652545282
 20
10.0194880990097
 30
0.0
  0
VERTEX
  5
4BC
  8
LAYER_1
 10
-228.3457155768531
 20
9.416876506314846
 30
0.0
  0
VERTEX
  5
4BD
  8
LAYER_1
 10
-229.4456805291627
 20
8.796828059069867
 30
0.0
  0
VERTEX
  5
4BE
  8
LAYER_1
 10
-230.5227888724806
 20
8.159656916592244
 30
0.0
  0
VERTEX
  5
4BF
  8
LAYER_1
 10
-231.5765693678307
 20
7.505677238199459
 30
0.0
  0
VERTEX
  5
4C0
  8
LAYER_1
 10
-232.6065507762367
 20
6.835203183208992
 30
0.0
  0
VERTEX
  5
4C1
  8
LAYER_1
 10
-233.6122618587224
 20
6.148548910938326
 30
0.0
  0
VERTEX
  5
4C2
  8
LAYER_1
 10
-234.5932313763116
 20
5.446028580704944
 30
0.0
  0
VERTEX
  5
4C3
  8
LAYER_1
 10
-235.548988090028
 20
4.727956351826324
 30
0.0
  0
VERTEX
  5
4C4
  8
LAYER_1
 10
-236.4790607608955
 20
3.99464638361995
 30
0.0
  0
VERTEX
  5
4C5
  8
LAYER_1
 10
-237.3829781499378
 20
3.246412835403301
 30
0.0
  0
VERTEX
  5
4C6
  8
LAYER_1
 10
-238.2602690181787
 20
2.483569866493859
 30
0.0
  0
VERTEX
  5
4C7
  8
LAYER_1
 10
-239.1104621266419
 20
1.706431636209107
 30
0.0
  0
VERTEX
  5
4C8
  8
LAYER_1
 10
-239.9330862363513
 20
0.9153123038665237
 30
0.0
  0
VERTEX
  5
4C9
  8
LAYER_1
 10
-240.7276701083306
 20
0.1105260287835924
 30
0.0
  0
VERTEX
  5
4CA
  8
LAYER_1
 10
-241.1142996929914
 20
-0.296894037498791
 30
0.0
  0
VERTEX
  5
4CB
  8
LAYER_1
 10
-241.4937425036036
 20
-0.7076130297222061
 30
0.0
  0
VERTEX
  5
4CC
  8
LAYER_1
 10
-241.8659396352952
 20
-1.121591677971968
 30
0.0
  0
VERTEX
  5
4CD
  8
LAYER_1
 10
-242.2308321831941
 20
-1.538790712333391
 30
0.0
  0
VERTEX
  5
4CE
  8
LAYER_1
 10
-242.5883612424283
 20
-1.95917086289179
 30
0.0
  0
VERTEX
  5
4CF
  8
LAYER_1
 10
-242.9384679081259
 20
-2.38269285973248
 30
0.0
  0
VERTEX
  5
4D0
  8
LAYER_1
 10
-243.2810932754147
 20
-2.809317432940776
 30
0.0
  0
VERTEX
  5
4D1
  8
LAYER_1
 10
-243.6161784394227
 20
-3.239005312601992
 30
0.0
  0
VERTEX
  5
4D2
  8
LAYER_1
 10
-243.9436644952779
 20
-3.671717228801445
 30
0.0
  0
VERTEX
  5
4D3
  8
LAYER_1
 10
-244.2634925381083
 20
-4.107413911624447
 30
0.0
  0
VERTEX
  5
4D4
  8
LAYER_1
 10
-244.5756036630418
 20
-4.546056091156315
 30
0.0
  0
VERTEX
  5
4D5
  8
LAYER_1
 10
-244.8799389652065
 20
-4.987604497482363
 30
0.0
  0
VERTEX
  5
4D6
  8
LAYER_1
 10
-245.1764395397303
 20
-5.432019860687905
 30
0.0
  0
VERTEX
  5
4D7
  8
LAYER_1
 10
-245.4650464817411
 20
-5.879262910858257
 30
0.0
  0
VERTEX
  5
4D8
  8
LAYER_1
 10
-245.7457008863669
 20
-6.329294378078734
 30
0.0
  0
VERTEX
  5
4D9
  8
LAYER_1
 10
-246.0183438487358
 20
-6.78207499243465
 30
0.0
  0
VERTEX
  5
4DA
  8
LAYER_1
 10
-246.2829164639757
 20
-7.23756548401132
 30
0.0
  0
VERTEX
  5
4DB
  8
LAYER_1
 10
-246.5393598272145
 20
-7.695726582894059
 30
0.0
  0
VERTEX
  5
4DC
  8
LAYER_1
 10
-246.7876150335802
 20
-8.156519019168181
 30
0.0
  0
VERTEX
  5
4DD
  8
LAYER_1
 10
-247.0276231782008
 20
-8.619903522919003
 30
0.0
  0
VERTEX
  5
4DE
  8
LAYER_1
 10
-247.2593253562043
 20
-9.085840824231838
 30
0.0
  0
VERTEX
  5
4DF
  8
LAYER_1
 10
-247.4826626627187
 20
-9.554291653192003
 30
0.0
  0
VERTEX
  5
4E0
  8
LAYER_1
 10
-247.6975761928718
 20
-10.02521673988481
 30
0.0
  0
VERTEX
  5
4E1
  8
LAYER_1
 10
-247.9040070417918
 20
-10.49857681439557
 30
0.0
  0
VERTEX
  5
4E2
  8
LAYER_1
 10
-248.1018963046065
 20
-10.97433260680961
 30
0.0
  0
VERTEX
  5
4E3
  8
LAYER_1
 10
-248.2911850764439
 20
-11.45244484721224
 30
0.0
  0
VERTEX
  5
4E4
  8
LAYER_1
 10
-248.4718144524321
 20
-11.93287426568877
 30
0.0
  0
VERTEX
  5
4E5
  8
LAYER_1
 10
-248.6437255276989
 20
-12.41558159232451
 30
0.0
  0
VERTEX
  5
4E6
  8
LAYER_1
 10
-248.8068593973724
 20
-12.90052755720479
 30
0.0
  0
VERTEX
  5
4E7
  8
LAYER_1
 10
-248.9611571565804
 20
-13.38767289041491
 30
0.0
  0
VERTEX
  5
4E8
  8
LAYER_1
 10
-249.1065599004511
 20
-13.8769783220402
 30
0.0
  0
VERTEX
  5
4E9
  8
LAYER_1
 10
-249.2430087241124
 20
-14.36840458216596
 30
0.0
  0
VERTEX
  5
4EA
  8
LAYER_1
 10
-249.3704447226922
 20
-14.86191240087752
 30
0.0
  0
VERTEX
  5
4EB
  8
LAYER_1
 10
-249.4888089913185
 20
-15.35746250826018
 30
0.0
  0
VERTEX
  5
4EC
  8
LAYER_1
 10
-249.5980426251192
 20
-15.85501563439926
 30
0.0
  0
VERTEX
  5
4ED
  8
LAYER_1
 10
-249.6980867192225
 20
-16.35453250938008
 30
0.0
  0
VERTEX
  5
4EE
  8
LAYER_1
 10
-249.7888823687561
 20
-16.85597386328795
 30
0.0
  0
VERTEX
  5
4EF
  8
LAYER_1
 10
-249.8703706688482
 20
-17.35930042620818
 30
0.0
  0
VERTEX
  5
4F0
  8
LAYER_1
 10
-249.9424927146266
 20
-17.8644729282261
 30
0.0
  0
VERTEX
  5
4F1
  8
LAYER_1
 10
-250.0051896012194
 20
-18.37145209942701
 30
0.0
  0
VERTEX
  5
4F2
  8
LAYER_1
 10
-250.0584024237545
 20
-18.88019866989623
 30
0.0
  0
VERTEX
  5
4F3
  8
LAYER_1
 10
-250.1020722773599
 20
-19.39067336971907
 30
0.0
  0
VERTEX
  5
4F4
  8
LAYER_1
 10
-250.1361402571635
 20
-19.90283692898086
 30
0.0
  0
VERTEX
  5
4F5
  8
LAYER_1
 10
-250.1605474582934
 20
-20.4166500777669
 30
0.0
  0
VERTEX
  5
4F6
  8
LAYER_1
 10
-250.1752349758775
 20
-20.93207354616251
 30
0.0
  0
VERTEX
  5
4F7
  8
LAYER_1
 10
-250.1801439050437
 20
-21.44906806425301
 30
0.0
  0
VERTEX
  5
4F8
  8
LAYER_1
 10
-250.1752349758775
 20
-21.9660625823435
 30
0.0
  0
VERTEX
  5
4F9
  8
LAYER_1
 10
-250.1605474582934
 20
-22.48148605073911
 30
0.0
  0
VERTEX
  5
4FA
  8
LAYER_1
 10
-250.1361402571635
 20
-22.99529919952515
 30
0.0
  0
VERTEX
  5
4FB
  8
LAYER_1
 10
-250.1020722773599
 20
-23.50746275878694
 30
0.0
  0
VERTEX
  5
4FC
  8
LAYER_1
 10
-250.0584024237545
 20
-24.01793745860978
 30
0.0
  0
VERTEX
  5
4FD
  8
LAYER_1
 10
-250.0051896012194
 20
-24.526684029079
 30
0.0
  0
VERTEX
  5
4FE
  8
LAYER_1
 10
-249.9424927146266
 20
-25.03366320027991
 30
0.0
  0
VERTEX
  5
4FF
  8
LAYER_1
 10
-249.8703706688482
 20
-25.53883570229783
 30
0.0
  0
VERTEX
  5
500
  8
LAYER_1
 10
-249.7888823687561
 20
-26.04216226521806
 30
0.0
  0
VERTEX
  5
501
  8
LAYER_1
 10
-249.6980867192225
 20
-26.54360361912593
 30
0.0
  0
VERTEX
  5
502
  8
LAYER_1
 10
-249.5980426251192
 20
-27.04312049410675
 30
0.0
  0
VERTEX
  5
503
  8
LAYER_1
 10
-249.4888089913185
 20
-27.54067362024583
 30
0.0
  0
VERTEX
  5
504
  8
LAYER_1
 10
-249.3704447226922
 20
-28.0362237276285
 30
0.0
  0
VERTEX
  5
505
  8
LAYER_1
 10
-249.2430087241124
 20
-28.52973154634005
 30
0.0
  0
VERTEX
  5
506
  8
LAYER_1
 10
-249.1065599004511
 20
-29.02115780646581
 30
0.0
  0
VERTEX
  5
507
  8
LAYER_1
 10
-248.9611571565804
 20
-29.5104632380911
 30
0.0
  0
VERTEX
  5
508
  8
LAYER_1
 10
-248.8068593973724
 20
-29.99760857130122
 30
0.0
  0
VERTEX
  5
509
  8
LAYER_1
 10
-248.6437255276989
 20
-30.4825545361815
 30
0.0
  0
VERTEX
  5
50A
  8
LAYER_1
 10
-248.4718144524321
 20
-30.96526186281725
 30
0.0
  0
VERTEX
  5
50B
  8
LAYER_1
 10
-248.2911850764439
 20
-31.44569128129378
 30
0.0
  0
VERTEX
  5
50C
  8
LAYER_1
 10
-248.1018963046065
 20
-31.9238035216964
 30
0.0
  0
VERTEX
  5
50D
  8
LAYER_1
 10
-247.9040070417918
 20
-32.39955931411043
 30
0.0
  0
VERTEX
  5
50E
  8
LAYER_1
 10
-247.6975761928718
 20
-32.87291938862121
 30
0.0
  0
VERTEX
  5
50F
  8
LAYER_1
 10
-247.4826626627187
 20
-33.34384447531401
 30
0.0
  0
VERTEX
  5
510
  8
LAYER_1
 10
-247.2593253562043
 20
-33.81229530427417
 30
0.0
  0
VERTEX
  5
511
  8
LAYER_1
 10
-247.0276231782008
 20
-34.27823260558701
 30
0.0
  0
VERTEX
  5
512
  8
LAYER_1
 10
-246.7876150335802
 20
-34.74161710933782
 30
0.0
  0
VERTEX
  5
513
  8
LAYER_1
 10
-246.5393598272145
 20
-35.20240954561195
 30
0.0
  0
VERTEX
  5
514
  8
LAYER_1
 10
-246.2829164639757
 20
-35.66057064449468
 30
0.0
  0
VERTEX
  5
515
  8
LAYER_1
 10
-246.0183438487358
 20
-36.11606113607135
 30
0.0
  0
VERTEX
  5
516
  8
LAYER_1
 10
-245.7457008863669
 20
-36.56884175042727
 30
0.0
  0
VERTEX
  5
517
  8
LAYER_1
 10
-245.4650464817411
 20
-37.01887321764775
 30
0.0
  0
VERTEX
  5
518
  8
LAYER_1
 10
-245.1764395397303
 20
-37.46611626781811
 30
0.0
  0
VERTEX
  5
519
  8
LAYER_1
 10
-244.8799389652065
 20
-37.91053163102364
 30
0.0
  0
VERTEX
  5
51A
  8
LAYER_1
 10
-244.5756036630418
 20
-38.35208003734969
 30
0.0
  0
VERTEX
  5
51B
  8
LAYER_1
 10
-244.2634925381083
 20
-38.79072221688156
 30
0.0
  0
VERTEX
  5
51C
  8
LAYER_1
 10
-243.9436644952779
 20
-39.22641889970457
 30
0.0
  0
VERTEX
  5
51D
  8
LAYER_1
 10
-243.6161784394227
 20
-39.65913081590402
 30
0.0
  0
VERTEX
  5
51E
  8
LAYER_1
 10
-243.2810932754147
 20
-40.08881869556524
 30
0.0
  0
VERTEX
  5
51F
  8
LAYER_1
 10
-242.9384679081259
 20
-40.51544326877353
 30
0.0
  0
VERTEX
  5
520
  8
LAYER_1
 10
-242.5883612424283
 20
-40.93896526561421
 30
0.0
  0
VERTEX
  5
521
  8
LAYER_1
 10
-242.2308321831941
 20
-41.35934541617262
 30
0.0
  0
VERTEX
  5
522
  8
LAYER_1
 10
-241.8659396352952
 20
-41.77654445053404
 30
0.0
  0
VERTEX
  5
523
  8
LAYER_1
 10
-241.4937425036036
 20
-42.1905230987838
 30
0.0
  0
VERTEX
  5
524
  8
LAYER_1
 10
-240.7276701083306
 20
-43.00866215728961
 30
0.0
  0
VERTEX
  5
525
  8
LAYER_1
 10
-239.9330862363513
 20
-43.81344843237254
 30
0.0
  0
VERTEX
  5
526
  8
LAYER_1
 10
-239.1104621266419
 20
-44.60456776471511
 30
0.0
  0
VERTEX
  5
527
  8
LAYER_1
 10
-238.2602690181787
 20
-45.38170599499987
 30
0.0
  0
VERTEX
  5
528
  8
LAYER_1
 10
-237.3829781499378
 20
-46.14454896390932
 30
0.0
  0
VERTEX
  5
529
  8
LAYER_1
 10
-236.4790607608955
 20
-46.89278251212596
 30
0.0
  0
VERTEX
  5
52A
  8
LAYER_1
 10
-235.548988090028
 20
-47.62609248033233
 30
0.0
  0
VERTEX
  5
52B
  8
LAYER_1
 10
-234.5932313763116
 20
-48.34416470921096
 30
0.0
  0
VERTEX
  5
52C
  8
LAYER_1
 10
-233.6122618587224
 20
-49.04668503944434
 30
0.0
  0
VERTEX
  5
52D
  8
LAYER_1
 10
-232.6065507762367
 20
-49.73333931171501
 30
0.0
  0
VERTEX
  5
52E
  8
LAYER_1
 10
-231.5765693678307
 20
-50.40381336670548
 30
0.0
  0
VERTEX
  5
52F
  8
LAYER_1
 10
-230.5227888724806
 20
-51.05779304509826
 30
0.0
  0
VERTEX
  5
530
  8
LAYER_1
 10
-229.4456805291627
 20
-51.69496418757589
 30
0.0
  0
VERTEX
  5
531
  8
LAYER_1
 10
-228.3457155768531
 20
-52.31501263482087
 30
0.0
  0
VERTEX
  5
532
  8
LAYER_1
 10
-227.2233652545282
 20
-52.91762422751572
 30
0.0
  0
VERTEX
  5
533
  8
LAYER_1
 10
-226.079100801164
 20
-53.50248480634297
 30
0.0
  0
VERTEX
  5
534
  8
LAYER_1
 10
-224.9133934557369
 20
-54.06928021198513
 30
0.0
  0
VERTEX
  5
535
  8
LAYER_1
 10
-223.726714457223
 20
-54.61769628512473
 30
0.0
  0
VERTEX
  5
536
  8
LAYER_1
 10
-222.5195350445986
 20
-55.14741886644427
 30
0.0
  0
VERTEX
  5
537
  8
LAYER_1
 10
-221.2923264568399
 20
-55.65813379662629
 30
0.0
  0
VERTEX
  5
538
  8
LAYER_1
 10
-220.0455599329231
 20
-56.1495269163533
 30
0.0
  0
VERTEX
  5
539
  8
LAYER_1
 10
-218.7797067118245
 20
-56.6212840663078
 30
0.0
  0
VERTEX
  5
53A
  8
LAYER_1
 10
-217.4952380325202
 20
-57.07309108717233
 30
0.0
  0
VERTEX
  5
53B
  8
LAYER_1
 10
-216.1926251339866
 20
-57.5046338196294
 30
0.0
  0
VERTEX
  5
53C
  8
LAYER_1
 10
-214.8723392551997
 20
-57.91559810436155
 30
0.0
  0
VERTEX
  5
53D
  8
LAYER_1
 10
-213.5348516351358
 20
-58.30566978205126
 30
0.0
  0
VERTEX
  5
53E
  8
LAYER_1
 10
-212.1806335127712
 20
-58.67453469338108
 30
0.0
  0
VERTEX
  5
53F
  8
LAYER_1
 10
-210.8101561270821
 20
-59.02187867903352
 30
0.0
  0
VERTEX
  5
540
  8
LAYER_1
 10
-209.4238907170447
 20
-59.34738757969109
 30
0.0
  0
VERTEX
  5
541
  8
LAYER_1
 10
-208.0223085216352
 20
-59.65074723603632
 30
0.0
  0
VERTEX
  5
542
  8
LAYER_1
 10
-206.6058807798298
 20
-59.93164348875172
 30
0.0
  0
VERTEX
  5
543
  8
LAYER_1
 10
-205.1750787306048
 20
-60.18976217851982
 30
0.0
  0
VERTEX
  5
544
  8
LAYER_1
 10
-203.7303736129364
 20
-60.42478914602313
 30
0.0
  0
VERTEX
  5
545
  8
LAYER_1
 10
-202.2722366658008
 20
-60.63641023194417
 30
0.0
  0
VERTEX
  5
546
  8
LAYER_1
 10
-200.8011391281743
 20
-60.82431127696546
 30
0.0
  0
VERTEX
  5
547
  8
LAYER_1
 10
-199.3175522390329
 20
-60.98817812176951
 30
0.0
  0
VERTEX
  5
548
  8
LAYER_1
 10
-197.8219472373531
 20
-61.12769660703885
 30
0.0
  0
VERTEX
  5
549
  8
LAYER_1
 10
-196.3147953621109
 20
-61.242552573456
 30
0.0
  0
VERTEX
  5
54A
  8
LAYER_1
 10
-194.7965678522827
 20
-61.33243186170347
 30
0.0
  0
VERTEX
  5
54B
  8
LAYER_1
 10
-193.2677359468446
 20
-61.39702031246378
 30
0.0
  0
VERTEX
  5
54C
  8
LAYER_1
 10
-191.7287708847728
 20
-61.43600376641946
 30
0.0
  0
SEQEND
  5
82D
  8
LAYER_1
  0
POLYLINE
  5
69
  8
LAYER_1
 66
     1
 10
0.0
 20
0.0
 30
0.0
  0
VERTEX
  5
54D
  8
LAYER_1
 10
-235.1801439050369
 20
-47.90320982852811
 30
0.0
  0
VERTEX
  5
54E
  8
LAYER_1
 10
-235.1801439050369
 20
-59.92139261688553
 30
0.0
  0
SEQEND
  5
82E
  8
LAYER_1
  0
POLYLINE
  5
6A
  8
LAYER_1
 66
     1
 10
0.0
 20
0.0
 30
0.0
  0
VERTEX
  5
54F
  8
LAYER_1
 10
-145.1801439050369
 20
-47.9032098285178
 30
0.0
  0
VERTEX
  5
550
  8
LAYER_1
 10
-145.1801439050369
 20
-59.92139261687729
 30
0.0
  0
SEQEND
  5
82F
  8
LAYER_1
  0
POLYLINE
  5
6B
  8
LAYER_1
 66
     1
 10
0.0
 20
0.0
 30
0.0
 70
     1
  0
VERTEX
  5
551
  8
LAYER_1
 10
-56.66002514976153
 20
63.34838388488546
 30
0.0
  0
VERTEX
  5
552
  8
LAYER_1
 10
-58.20865212949069
 20
63.33531958705191
 30
0.0
  0
VERTEX
  5
553
  8
LAYER_1
 10
-59.74761719156243
 20
63.29633613309623
 30
0.0
  0
VERTEX
  5
554
  8
LAYER_1
 10
-61.27644909700052
 20
63.23174768233592
 30
0.0
  0
VERTEX
  5
555
  8
LAYER_1
 10
-62.79467660682877
 20
63.14186839408845
 30
0.0
  0
VERTEX
  5
556
  8
LAYER_1
 10
-64.30182848207092
 20
63.0270124276713
 30
0.0
  0
VERTEX
  5
557
  8
LAYER_1
 10
-65.79743348375078
 20
62.88749394240196
 30
0.0
  0
VERTEX
  5
558
  8
LAYER_1
 10
-67.2810203728921
 20
62.72362709759791
 30
0.0
  0
VERTEX
  5
559
  8
LAYER_1
 10
-68.75211791051868
 20
62.53572605257662
 30
0.0
  0
VERTEX
  5
55A
  8
LAYER_1
 10
-70.21025485765426
 20
62.32410496665558
 30
0.0
  0
VERTEX
  5
55B
  8
LAYER_1
 10
-71.65495997532267
 20
62.08907799915228
 30
0.0
  0
VERTEX
  5
55C
  8
LAYER_1
 10
-73.08576202454766
 20
61.83095930938418
 30
0.0
  0
VERTEX
  5
55D
  8
LAYER_1
 10
-74.50218976635301
 20
61.55006305666878
 30
0.0
  0
VERTEX
  5
55E
  8
LAYER_1
 10
-75.90377196176252
 20
61.24670340032355
 30
0.0
  0
VERTEX
  5
55F
  8
LAYER_1
 10
-77.29003737179993
 20
60.92119449966598
 30
0.0
  0
VERTEX
  5
560
  8
LAYER_1
 10
-78.66051475748904
 20
60.57385051401354
 30
0.0
  0
VERTEX
  5
561
  8
LAYER_1
 10
-80.01473287985364
 20
60.20498560268372
 30
0.0
  0
VERTEX
  5
562
  8
LAYER_1
 10
-81.35222049991748
 20
59.814913924994
 30
0.0
  0
VERTEX
  5
563
  8
LAYER_1
 10
-82.67250637870436
 20
59.40394964026186
 30
0.0
  0
VERTEX
  5
564
  8
LAYER_1
 10
-83.97511927723804
 20
58.97240690780478
 30
0.0
  0
VERTEX
  5
565
  8
LAYER_1
 10
-85.2595879565423
 20
58.52059988694025
 30
0.0
  0
VERTEX
  5
566
  8
LAYER_1
 10
-86.52544117764094
 20
58.04884273698575
 30
0.0
  0
VERTEX
  5
567
  8
LAYER_1
 10
-87.77220770155773
 20
57.55744961725874
 30
0.0
  0
VERTEX
  5
568
  8
LAYER_1
 10
-88.99941628931643
 20
57.04673468707672
 30
0.0
  0
VERTEX
  5
569
  8
LAYER_1
 10
-90.20659570194081
 20
56.51701210575718
 30
0.0
  0
VERTEX
  5
56A
  8
LAYER_1
 10
-91.39327470045468
 20
55.96859603261758
 30
0.0
  0
VERTEX
  5
56B
  8
LAYER_1
 10
-92.5589820458818
 20
55.40180062697542
 30
0.0
  0
VERTEX
  5
56C
  8
LAYER_1
 10
-93.70324649924598
 20
54.81694004814818
 30
0.0
  0
VERTEX
  5
56D
  8
LAYER_1
 10
-94.82559682157094
 20
54.21432845545333
 30
0.0
  0
VERTEX
  5
56E
  8
LAYER_1
 10
-95.9255617738805
 20
53.59428000820834
 30
0.0
  0
VERTEX
  5
56F
  8
LAYER_1
 10
-97.00267011719843
 20
52.95710886573072
 30
0.0
  0
VERTEX
  5
570
  8
LAYER_1
 10
-98.0564506125485
 20
52.30312918733793
 30
0.0
  0
VERTEX
  5
571
  8
LAYER_1
 10
-99.0864320209545
 20
51.63265513234747
 30
0.0
  0
VERTEX
  5
572
  8
LAYER_1
 10
-100.0921431034402
 20
50.9460008600768
 30
0.0
  0
VERTEX
  5
573
  8
LAYER_1
 10
-101.0731126210294
 20
50.24348052984342
 30
0.0
  0
VERTEX
  5
574
  8
LAYER_1
 10
-102.0288693347458
 20
49.5254083009648
 30
0.0
  0
VERTEX
  5
575
  8
LAYER_1
 10
-102.9589420056133
 20
48.79209833275843
 30
0.0
  0
VERTEX
  5
576
  8
LAYER_1
 10
-103.8628593946555
 20
48.04386478454178
 30
0.0
  0
VERTEX
  5
577
  8
LAYER_1
 10
-104.7401502628964
 20
47.28102181563234
 30
0.0
  0
VERTEX
  5
578
  8
LAYER_1
 10
-105.5903433713597
 20
46.50388358534758
 30
0.0
  0
VERTEX
  5
579
  8
LAYER_1
 10
-106.4129674810691
 20
45.71276425300501
 30
0.0
  0
VERTEX
  5
57A
  8
LAYER_1
 10
-107.2075513530484
 20
44.90797797792207
 30
0.0
  0
VERTEX
  5
57B
  8
LAYER_1
 10
-107.5941809377092
 20
44.50055791163969
 30
0.0
  0
VERTEX
  5
57C
  8
LAYER_1
 10
-107.9736237483214
 20
44.08983891941627
 30
0.0
  0
VERTEX
  5
57D
  8
LAYER_1
 10
-108.345820880013
 20
43.67586027116651
 30
0.0
  0
VERTEX
  5
57E
  8
LAYER_1
 10
-108.7107134279119
 20
43.25866123680508
 30
0.0
  0
VERTEX
  5
57F
  8
LAYER_1
 10
-109.0682424871461
 20
42.83828108624668
 30
0.0
  0
VERTEX
  5
580
  8
LAYER_1
 10
-109.4183491528437
 20
42.414759089406
 30
0.0
  0
VERTEX
  5
581
  8
LAYER_1
 10
-109.7609745201325
 20
41.9881345161977
 30
0.0
  0
VERTEX
  5
582
  8
LAYER_1
 10
-110.0960596841405
 20
41.55844663653649
 30
0.0
  0
VERTEX
  5
583
  8
LAYER_1
 10
-110.4235457399957
 20
41.12573472033704
 30
0.0
  0
VERTEX
  5
584
  8
LAYER_1
 10
-110.7433737828261
 20
40.69003803751403
 30
0.0
  0
VERTEX
  5
585
  8
LAYER_1
 10
-111.0554849077596
 20
40.25139585798216
 30
0.0
  0
VERTEX
  5
586
  8
LAYER_1
 10
-111.3598202099243
 20
39.80984745165611
 30
0.0
  0
VERTEX
  5
587
  8
LAYER_1
 10
-111.656320784448
 20
39.36543208845058
 30
0.0
  0
VERTEX
  5
588
  8
LAYER_1
 10
-111.9449277264589
 20
38.91818903828022
 30
0.0
  0
VERTEX
  5
589
  8
LAYER_1
 10
-112.2255821310847
 20
38.46815757105973
 30
0.0
  0
VERTEX
  5
58A
  8
LAYER_1
 10
-112.4982250934536
 20
38.01537695670382
 30
0.0
  0
VERTEX
  5
58B
  8
LAYER_1
 10
-112.7627977086935
 20
37.55988646512715
 30
0.0
  0
VERTEX
  5
58C
  8
LAYER_1
 10
-113.0192410719322
 20
37.10172536624442
 30
0.0
  0
VERTEX
  5
58D
  8
LAYER_1
 10
-113.267496278298
 20
36.64093292997029
 30
0.0
  0
VERTEX
  5
58E
  8
LAYER_1
 10
-113.5075044229186
 20
36.17754842621947
 30
0.0
  0
VERTEX
  5
58F
  8
LAYER_1
 10
-113.7392066009221
 20
35.71161112490664
 30
0.0
  0
VERTEX
  5
590
  8
LAYER_1
 10
-113.9625439074365
 20
35.24316029594648
 30
0.0
  0
VERTEX
  5
591
  8
LAYER_1
 10
-114.1774574375896
 20
34.77223520925367
 30
0.0
  0
VERTEX
  5
592
  8
LAYER_1
 10
-114.3838882865096
 20
34.2988751347429
 30
0.0
  0
VERTEX
  5
593
  8
LAYER_1
 10
-114.5817775493243
 20
33.82311934232887
 30
0.0
  0
VERTEX
  5
594
  8
LAYER_1
 10
-114.7710663211617
 20
33.34500710192624
 30
0.0
  0
VERTEX
  5
595
  8
LAYER_1
 10
-114.9516956971499
 20
32.86457768344972
 30
0.0
  0
VERTEX
  5
596
  8
LAYER_1
 10
-115.1236067724167
 20
32.38187035681398
 30
0.0
  0
VERTEX
  5
597
  8
LAYER_1
 10
-115.2867406420901
 20
31.89692439193369
 30
0.0
  0
VERTEX
  5
598
  8
LAYER_1
 10
-115.4410384012982
 20
31.40977905872357
 30
0.0
  0
VERTEX
  5
599
  8
LAYER_1
 10
-115.5864411451689
 20
30.92047362709829
 30
0.0
  0
VERTEX
  5
59A
  8
LAYER_1
 10
-115.7228899688302
 20
30.42904736697252
 30
0.0
  0
VERTEX
  5
59B
  8
LAYER_1
 10
-115.85032596741
 20
29.93553954826097
 30
0.0
  0
VERTEX
  5
59C
  8
LAYER_1
 10
-115.9686902360363
 20
29.43998944087831
 30
0.0
  0
VERTEX
  5
59D
  8
LAYER_1
 10
-116.077923869837
 20
28.94243631473922
 30
0.0
  0
VERTEX
  5
59E
  8
LAYER_1
 10
-116.1779679639403
 20
28.44291943975841
 30
0.0
  0
VERTEX
  5
59F
  8
LAYER_1
 10
-116.2687636134739
 20
27.94147808585054
 30
0.0
  0
VERTEX
  5
5A0
  8
LAYER_1
 10
-116.350251913566
 20
27.4381515229303
 30
0.0
  0
VERTEX
  5
5A1
  8
LAYER_1
 10
-116.4223739593444
 20
26.93297902091238
 30
0.0
  0
VERTEX
  5
5A2
  8
LAYER_1
 10
-116.4850708459372
 20
26.42599984971147
 30
0.0
  0
VERTEX
  5
5A3
  8
LAYER_1
 10
-116.5382836684723
 20
25.91725327924226
 30
0.0
  0
VERTEX
  5
5A4
  8
LAYER_1
 10
-116.5819535220777
 20
25.40677857941941
 30
0.0
  0
VERTEX
  5
5A5
  8
LAYER_1
 10
-116.6160215018813
 20
24.89461502015762
 30
0.0
  0
VERTEX
  5
5A6
  8
LAYER_1
 10
-116.6404287030112
 20
24.38080187137158
 30
0.0
  0
VERTEX
  5
5A7
  8
LAYER_1
 10
-116.6551162205952
 20
23.86537840297597
 30
0.0
  0
VERTEX
  5
5A8
  8
LAYER_1
 10
-116.6600251497615
 20
23.34838388488548
 30
0.0
  0
VERTEX
  5
5A9
  8
LAYER_1
 10
-116.6551162205952
 20
22.83138936679499
 30
0.0
  0
VERTEX
  5
5AA
  8
LAYER_1
 10
-116.6404287030112
 20
22.31596589839938
 30
0.0
  0
VERTEX
  5
5AB
  8
LAYER_1
 10
-116.6160215018813
 20
21.80215274961333
 30
0.0
  0
VERTEX
  5
5AC
  8
LAYER_1
 10
-116.5819535220777
 20
21.28998919035155
 30
0.0
  0
VERTEX
  5
5AD
  8
LAYER_1
 10
-116.5382836684723
 20
20.7795144905287
 30
0.0
  0
VERTEX
  5
5AE
  8
LAYER_1
 10
-116.4850708459372
 20
20.27076792005948
 30
0.0
  0
VERTEX
  5
5AF
  8
LAYER_1
 10
-116.4223739593444
 20
19.76378874885857
 30
0.0
  0
VERTEX
  5
5B0
  8
LAYER_1
 10
-116.350251913566
 20
19.25861624684066
 30
0.0
  0
VERTEX
  5
5B1
  8
LAYER_1
 10
-116.2687636134739
 20
18.75528968392042
 30
0.0
  0
VERTEX
  5
5B2
  8
LAYER_1
 10
-116.1779679639403
 20
18.25384833001255
 30
0.0
  0
VERTEX
  5
5B3
  8
LAYER_1
 10
-116.077923869837
 20
17.75433145503174
 30
0.0
  0
VERTEX
  5
5B4
  8
LAYER_1
 10
-115.9686902360363
 20
17.25677832889265
 30
0.0
  0
VERTEX
  5
5B5
  8
LAYER_1
 10
-115.85032596741
 20
16.76122822150999
 30
0.0
  0
VERTEX
  5
5B6
  8
LAYER_1
 10
-115.7228899688302
 20
16.26772040279844
 30
0.0
  0
VERTEX
  5
5B7
  8
LAYER_1
 10
-115.5864411451689
 20
15.77629414267268
 30
0.0
  0
VERTEX
  5
5B8
  8
LAYER_1
 10
-115.4410384012982
 20
15.28698871104739
 30
0.0
  0
VERTEX
  5
5B9
  8
LAYER_1
 10
-115.2867406420901
 20
14.79984337783727
 30
0.0
  0
VERTEX
  5
5BA
  8
LAYER_1
 10
-115.1236067724167
 20
14.31489741295699
 30
0.0
  0
VERTEX
  5
5BB
  8
LAYER_1
 10
-114.9516956971499
 20
13.83219008632124
 30
0.0
  0
VERTEX
  5
5BC
  8
LAYER_1
 10
-114.7710663211617
 20
13.35176066784472
 30
0.0
  0
VERTEX
  5
5BD
  8
LAYER_1
 10
-114.5817775493243
 20
12.87364842744209
 30
0.0
  0
VERTEX
  5
5BE
  8
LAYER_1
 10
-114.3838882865096
 20
12.39789263502805
 30
0.0
  0
VERTEX
  5
5BF
  8
LAYER_1
 10
-114.1774574375896
 20
11.92453256051729
 30
0.0
  0
VERTEX
  5
5C0
  8
LAYER_1
 10
-113.9625439074365
 20
11.45360747382448
 30
0.0
  0
VERTEX
  5
5C1
  8
LAYER_1
 10
-113.7392066009221
 20
10.98515664486431
 30
0.0
  0
VERTEX
  5
5C2
  8
LAYER_1
 10
-113.5075044229186
 20
10.51921934355148
 30
0.0
  0
VERTEX
  5
5C3
  8
LAYER_1
 10
-113.267496278298
 20
10.05583483980066
 30
0.0
  0
VERTEX
  5
5C4
  8
LAYER_1
 10
-113.0192410719322
 20
9.595042403526534
 30
0.0
  0
VERTEX
  5
5C5
  8
LAYER_1
 10
-112.7627977086935
 20
9.136881304643797
 30
0.0
  0
VERTEX
  5
5C6
  8
LAYER_1
 10
-112.4982250934536
 20
8.681390813067125
 30
0.0
  0
VERTEX
  5
5C7
  8
LAYER_1
 10
-112.2255821310847
 20
8.228610198711209
 30
0.0
  0
VERTEX
  5
5C8
  8
LAYER_1
 10
-111.9449277264589
 20
7.778578731490732
 30
0.0
  0
VERTEX
  5
5C9
  8
LAYER_1
 10
-111.656320784448
 20
7.33133568132038
 30
0.0
  0
VERTEX
  5
5CA
  8
LAYER_1
 10
-111.3598202099243
 20
6.886920318114838
 30
0.0
  0
VERTEX
  5
5CB
  8
LAYER_1
 10
-111.0554849077596
 20
6.445371911788789
 30
0.0
  0
VERTEX
  5
5CC
  8
LAYER_1
 10
-110.7433737828261
 20
6.006729732256922
 30
0.0
  0
VERTEX
  5
5CD
  8
LAYER_1
 10
-110.4235457399957
 20
5.571033049433919
 30
0.0
  0
VERTEX
  5
5CE
  8
LAYER_1
 10
-110.0960596841405
 20
5.138321133234467
 30
0.0
  0
VERTEX
  5
5CF
  8
LAYER_1
 10
-109.7609745201325
 20
4.708633253573251
 30
0.0
  0
VERTEX
  5
5D0
  8
LAYER_1
 10
-109.4183491528437
 20
4.282008680364955
 30
0.0
  0
VERTEX
  5
5D1
  8
LAYER_1
 10
-109.0682424871461
 20
3.858486683524265
 30
0.0
  0
VERTEX
  5
5D2
  8
LAYER_1
 10
-108.7107134279119
 20
3.438106532965866
 30
0.0
  0
VERTEX
  5
5D3
  8
LAYER_1
 10
-108.345820880013
 20
3.020907498604442
 30
0.0
  0
VERTEX
  5
5D4
  8
LAYER_1
 10
-107.9736237483214
 20
2.606928850354681
 30
0.0
  0
VERTEX
  5
5D5
  8
LAYER_1
 10
-107.2075513530484
 20
1.788789791848882
 30
0.0
  0
VERTEX
  5
5D6
  8
LAYER_1
 10
-106.4129674810691
 20
0.9840035167659508
 30
0.0
  0
VERTEX
  5
5D7
  8
LAYER_1
 10
-105.5903433713597
 20
0.192884184423368
 30
0.0
  0
VERTEX
  5
5D8
  8
LAYER_1
 10
-104.7401502628964
 20
-0.5842540458613847
 30
0.0
  0
VERTEX
  5
5D9
  8
LAYER_1
 10
-103.8628593946555
 20
-1.347097014770826
 30
0.0
  0
VERTEX
  5
5DA
  8
LAYER_1
 10
-102.9589420056133
 20
-2.095330562987475
 30
0.0
  0
VERTEX
  5
5DB
  8
LAYER_1
 10
-102.0288693347458
 20
-2.82864053119385
 30
0.0
  0
VERTEX
  5
5DC
  8
LAYER_1
 10
-101.0731126210294
 20
-3.54671276007247
 30
0.0
  0
VERTEX
  5
5DD
  8
LAYER_1
 10
-100.0921431034402
 20
-4.249233090305853
 30
0.0
  0
VERTEX
  5
5DE
  8
LAYER_1
 10
-99.0864320209545
 20
-4.935887362576518
 30
0.0
  0
VERTEX
  5
5DF
  8
LAYER_1
 10
-98.0564506125485
 20
-5.606361417566985
 30
0.0
  0
VERTEX
  5
5E0
  8
LAYER_1
 10
-97.00267011719843
 20
-6.26034109595977
 30
0.0
  0
VERTEX
  5
5E1
  8
LAYER_1
 10
-95.9255617738805
 20
-6.897512238437393
 30
0.0
  0
VERTEX
  5
5E2
  8
LAYER_1
 10
-94.82559682157094
 20
-7.517560685682374
 30
0.0
  0
VERTEX
  5
5E3
  8
LAYER_1
 10
-93.70324649924598
 20
-8.12017227837723
 30
0.0
  0
VERTEX
  5
5E4
  8
LAYER_1
 10
-92.5589820458818
 20
-8.70503285720448
 30
0.0
  0
VERTEX
  5
5E5
  8
LAYER_1
 10
-91.39327470045468
 20
-9.271828262846645
 30
0.0
  0
VERTEX
  5
5E6
  8
LAYER_1
 10
-90.20659570194081
 20
-9.820244335986239
 30
0.0
  0
VERTEX
  5
5E7
  8
LAYER_1
 10
-88.99941628931643
 20
-10.34996691730578
 30
0.0
  0
VERTEX
  5
5E8
  8
LAYER_1
 10
-87.77220770155773
 20
-10.8606818474878
 30
0.0
  0
VERTEX
  5
5E9
  8
LAYER_1
 10
-86.52544117764094
 20
-11.3520749672148
 30
0.0
  0
VERTEX
  5
5EA
  8
LAYER_1
 10
-85.2595879565423
 20
-11.82383211716931
 30
0.0
  0
VERTEX
  5
5EB
  8
LAYER_1
 10
-83.97511927723804
 20
-12.27563913803384
 30
0.0
  0
VERTEX
  5
5EC
  8
LAYER_1
 10
-82.67250637870436
 20
-12.70718187049091
 30
0.0
  0
VERTEX
  5
5ED
  8
LAYER_1
 10
-81.35222049991748
 20
-13.11814615522305
 30
0.0
  0
VERTEX
  5
5EE
  8
LAYER_1
 10
-80.01473287985364
 20
-13.50821783291277
 30
0.0
  0
VERTEX
  5
5EF
  8
LAYER_1
 10
-78.66051475748904
 20
-13.87708274424259
 30
0.0
  0
VERTEX
  5
5F0
  8
LAYER_1
 10
-77.29003737179993
 20
-14.22442672989503
 30
0.0
  0
VERTEX
  5
5F1
  8
LAYER_1
 10
-75.90377196176252
 20
-14.5499356305526
 30
0.0
  0
VERTEX
  5
5F2
  8
LAYER_1
 10
-74.50218976635301
 20
-14.85329528689783
 30
0.0
  0
VERTEX
  5
5F3
  8
LAYER_1
 10
-73.08576202454766
 20
-15.13419153961323
 30
0.0
  0
VERTEX
  5
5F4
  8
LAYER_1
 10
-71.65495997532267
 20
-15.39231022938133
 30
0.0
  0
VERTEX
  5
5F5
  8
LAYER_1
 10
-70.21025485765426
 20
-15.62733719688464
 30
0.0
  0
VERTEX
  5
5F6
  8
LAYER_1
 10
-68.75211791051868
 20
-15.83895828280568
 30
0.0
  0
VERTEX
  5
5F7
  8
LAYER_1
 10
-67.2810203728921
 20
-16.02685932782697
 30
0.0
  0
VERTEX
  5
5F8
  8
LAYER_1
 10
-65.79743348375078
 20
-16.19072617263102
 30
0.0
  0
VERTEX
  5
5F9
  8
LAYER_1
 10
-64.30182848207092
 20
-16.33024465790037
 30
0.0
  0
VERTEX
  5
5FA
  8
LAYER_1
 10
-62.79467660682877
 20
-16.44510062431751
 30
0.0
  0
VERTEX
  5
5FB
  8
LAYER_1
 10
-61.27644909700052
 20
-16.53497991256499
 30
0.0
  0
VERTEX
  5
5FC
  8
LAYER_1
 10
-59.74761719156243
 20
-16.59956836332529
 30
0.0
  0
VERTEX
  5
5FD
  8
LAYER_1
 10
-58.20865212949069
 20
-16.63855181728097
 30
0.0
  0
VERTEX
  5
5FE
  8
LAYER_1
 10
-56.66002514976153
 20
-16.65161611511452
 30
0.0
  0
VERTEX
  5
5FF
  8
LAYER_1
 10
-55.11139817003237
 20
-16.63855181728097
 30
0.0
  0
VERTEX
  5
600
  8
LAYER_1
 10
-53.57243310796063
 20
-16.59956836332529
 30
0.0
  0
VERTEX
  5
601
  8
LAYER_1
 10
-52.04360120252254
 20
-16.53497991256499
 30
0.0
  0
VERTEX
  5
602
  8
LAYER_1
 10
-50.52537369269429
 20
-16.44510062431751
 30
0.0
  0
VERTEX
  5
603
  8
LAYER_1
 10
-49.01822181745214
 20
-16.33024465790037
 30
0.0
  0
VERTEX
  5
604
  8
LAYER_1
 10
-47.52261681577229
 20
-16.19072617263102
 30
0.0
  0
VERTEX
  5
605
  8
LAYER_1
 10
-46.03902992663096
 20
-16.02685932782697
 30
0.0
  0
VERTEX
  5
606
  8
LAYER_1
 10
-44.56793238900439
 20
-15.83895828280568
 30
0.0
  0
VERTEX
  5
607
  8
LAYER_1
 10
-43.10979544186878
 20
-15.62733719688464
 30
0.0
  0
VERTEX
  5
608
  8
LAYER_1
 10
-41.66509032420038
 20
-15.39231022938133
 30
0.0
  0
VERTEX
  5
609
  8
LAYER_1
 10
-40.23428827497538
 20
-15.13419153961323
 30
0.0
  0
VERTEX
  5
60A
  8
LAYER_1
 10
-38.81786053317002
 20
-14.85329528689783
 30
0.0
  0
VERTEX
  5
60B
  8
LAYER_1
 10
-37.41627833776052
 20
-14.5499356305526
 30
0.0
  0
VERTEX
  5
60C
  8
LAYER_1
 10
-36.03001292772311
 20
-14.22442672989503
 30
0.0
  0
VERTEX
  5
60D
  8
LAYER_1
 10
-34.65953554203399
 20
-13.87708274424259
 30
0.0
  0
VERTEX
  5
60E
  8
LAYER_1
 10
-33.3053174196694
 20
-13.50821783291277
 30
0.0
  0
VERTEX
  5
60F
  8
LAYER_1
 10
-31.96782979960555
 20
-13.11814615522305
 30
0.0
  0
VERTEX
  5
610
  8
LAYER_1
 10
-30.64754392081868
 20
-12.70718187049091
 30
0.0
  0
VERTEX
  5
611
  8
LAYER_1
 10
-29.344931022285
 20
-12.27563913803384
 30
0.0
  0
VERTEX
  5
612
  8
LAYER_1
 10
-28.06046234298073
 20
-11.82383211716931
 30
0.0
  0
VERTEX
  5
613
  8
LAYER_1
 10
-26.7946091218821
 20
-11.3520749672148
 30
0.0
  0
VERTEX
  5
614
  8
LAYER_1
 10
-25.54784259796532
 20
-10.8606818474878
 30
0.0
  0
VERTEX
  5
615
  8
LAYER_1
 10
-24.32063401020662
 20
-10.34996691730578
 30
0.0
  0
VERTEX
  5
616
  8
LAYER_1
 10
-23.11345459758222
 20
-9.820244335986239
 30
0.0
  0
VERTEX
  5
617
  8
LAYER_1
 10
-21.92677559906835
 20
-9.271828262846645
 30
0.0
  0
VERTEX
  5
618
  8
LAYER_1
 10
-20.76106825364122
 20
-8.70503285720448
 30
0.0
  0
VERTEX
  5
619
  8
LAYER_1
 10
-19.61680380027705
 20
-8.12017227837723
 30
0.0
  0
VERTEX
  5
61A
  8
LAYER_1
 10
-18.49445347795208
 20
-7.517560685682374
 30
0.0
  0
VERTEX
  5
61B
  8
LAYER_1
 10
-17.39448852564252
 20
-6.897512238437393
 30
0.0
  0
VERTEX
  5
61C
  8
LAYER_1
 10
-16.31738018232459
 20
-6.26034109595977
 30
0.0
  0
VERTEX
  5
61D
  8
LAYER_1
 10
-15.26359968697451
 20
-5.606361417566985
 30
0.0
  0
VERTEX
  5
61E
  8
LAYER_1
 10
-14.23361827856851
 20
-4.935887362576518
 30
0.0
  0
VERTEX
  5
61F
  8
LAYER_1
 10
-13.22790719608281
 20
-4.249233090305853
 30
0.0
  0
VERTEX
  5
620
  8
LAYER_1
 10
-12.24693767849364
 20
-3.54671276007247
 30
0.0
  0
VERTEX
  5
621
  8
LAYER_1
 10
-11.2911809647772
 20
-2.82864053119385
 30
0.0
  0
VERTEX
  5
622
  8
LAYER_1
 10
-10.36110829390973
 20
-2.095330562987475
 30
0.0
  0
VERTEX
  5
623
  8
LAYER_1
 10
-9.457190904867446
 20
-1.347097014770826
 30
0.0
  0
VERTEX
  5
624
  8
LAYER_1
 10
-8.579900036626569
 20
-0.5842540458613847
 30
0.0
  0
VERTEX
  5
625
  8
LAYER_1
 10
-7.729706928163323
 20
0.192884184423368
 30
0.0
  0
VERTEX
  5
626
  8
LAYER_1
 10
-6.907082818453931
 20
0.9840035167659508
 30
0.0
  0
VERTEX
  5
627
  8
LAYER_1
 10
-6.112498946474614
 20
1.788789791848882
 30
0.0
  0
VERTEX
  5
628
  8
LAYER_1
 10
-5.725869361813802
 20
2.196209858131266
 30
0.0
  0
VERTEX
  5
629
  8
LAYER_1
 10
-5.346426551201594
 20
2.606928850354681
 30
0.0
  0
VERTEX
  5
62A
  8
LAYER_1
 10
-4.974229419510014
 20
3.020907498604442
 30
0.0
  0
VERTEX
  5
62B
  8
LAYER_1
 10
-4.609336871611092
 20
3.438106532965866
 30
0.0
  0
VERTEX
  5
62C
  8
LAYER_1
 10
-4.251807812376854
 20
3.858486683524265
 30
0.0
  0
VERTEX
  5
62D
  8
LAYER_1
 10
-3.901701146679329
 20
4.282008680364955
 30
0.0
  0
VERTEX
  5
62E
  8
LAYER_1
 10
-3.559075779390545
 20
4.708633253573251
 30
0.0
  0
VERTEX
  5
62F
  8
LAYER_1
 10
-3.22399061538253
 20
5.138321133234467
 30
0.0
  0
VERTEX
  5
630
  8
LAYER_1
 10
-2.896504559527311
 20
5.571033049433919
 30
0.0
  0
VERTEX
  5
631
  8
LAYER_1
 10
-2.576676516696916
 20
6.006729732256922
 30
0.0
  0
VERTEX
  5
632
  8
LAYER_1
 10
-2.264565391763373
 20
6.445371911788789
 30
0.0
  0
VERTEX
  5
633
  8
LAYER_1
 10
-1.960230089598709
 20
6.886920318114838
 30
0.0
  0
VERTEX
  5
634
  8
LAYER_1
 10
-1.663729515074952
 20
7.33133568132038
 30
0.0
  0
VERTEX
  5
635
  8
LAYER_1
 10
-1.375122573064131
 20
7.778578731490732
 30
0.0
  0
VERTEX
  5
636
  8
LAYER_1
 10
-1.094468168438271
 20
8.228610198711209
 30
0.0
  0
VERTEX
  5
637
  8
LAYER_1
 10
-0.8218252060694022
 20
8.681390813067125
 30
0.0
  0
VERTEX
  5
638
  8
LAYER_1
 10
-0.5572525908295515
 20
9.136881304643797
 30
0.0
  0
VERTEX
  5
639
  8
LAYER_1
 10
-0.3008092275907467
 20
9.595042403526534
 30
0.0
  0
VERTEX
  5
63A
  8
LAYER_1
 10
-0.0525540212250155
 20
10.05583483980066
 30
0.0
  0
VERTEX
  5
63B
  8
LAYER_1
 10
0.1874541233956144
 20
10.51921934355148
 30
0.0
  0
VERTEX
  5
63C
  8
LAYER_1
 10
0.4191563013991151
 20
10.98515664486431
 30
0.0
  0
VERTEX
  5
63D
  8
LAYER_1
 10
0.6424936079134589
 20
11.45360747382448
 30
0.0
  0
VERTEX
  5
63E
  8
LAYER_1
 10
0.857407138066618
 20
11.92453256051729
 30
0.0
  0
VERTEX
  5
63F
  8
LAYER_1
 10
1.063837986986565
 20
12.39789263502805
 30
0.0
  0
VERTEX
  5
640
  8
LAYER_1
 10
1.261727249801271
 20
12.87364842744209
 30
0.0
  0
VERTEX
  5
641
  8
LAYER_1
 10
1.45101602163871
 20
13.35176066784472
 30
0.0
  0
VERTEX
  5
642
  8
LAYER_1
 10
1.631645397626853
 20
13.83219008632124
 30
0.0
  0
VERTEX
  5
643
  8
LAYER_1
 10
1.803556472893673
 20
14.31489741295699
 30
0.0
  0
VERTEX
  5
644
  8
LAYER_1
 10
1.966690342567142
 20
14.79984337783727
 30
0.0
  0
VERTEX
  5
645
  8
LAYER_1
 10
2.120988101775231
 20
15.28698871104739
 30
0.0
  0
VERTEX
  5
646
  8
LAYER_1
 10
2.266390845645915
 20
15.77629414267268
 30
0.0
  0
VERTEX
  5
647
  8
LAYER_1
 10
2.402839669307164
 20
16.26772040279844
 30
0.0
  0
VERTEX
  5
648
  8
LAYER_1
 10
2.53027566788695
 20
16.76122822150999
 30
0.0
  0
VERTEX
  5
649
  8
LAYER_1
 10
2.648639936513247
 20
17.25677832889265
 30
0.0
  0
VERTEX
  5
64A
  8
LAYER_1
 10
2.757873570314026
 20
17.75433145503174
 30
0.0
  0
VERTEX
  5
64B
  8
LAYER_1
 10
2.857917664417259
 20
18.25384833001255
 30
0.0
  0
VERTEX
  5
64C
  8
LAYER_1
 10
2.94871331395092
 20
18.75528968392042
 30
0.0
  0
VERTEX
  5
64D
  8
LAYER_1
 10
3.03020161404298
 20
19.25861624684066
 30
0.0
  0
VERTEX
  5
64E
  8
LAYER_1
 10
3.102323659821412
 20
19.76378874885857
 30
0.0
  0
VERTEX
  5
64F
  8
LAYER_1
 10
3.165020546414187
 20
20.27076792005948
 30
0.0
  0
VERTEX
  5
650
  8
LAYER_1
 10
3.218233368949277
 20
20.7795144905287
 30
0.0
  0
VERTEX
  5
651
  8
LAYER_1
 10
3.261903222554656
 20
21.28998919035155
 30
0.0
  0
VERTEX
  5
652
  8
LAYER_1
 10
3.295971202358295
 20
21.80215274961333
 30
0.0
  0
VERTEX
  5
653
  8
LAYER_1
 10
3.320378403488167
 20
22.31596589839938
 30
0.0
  0
VERTEX
  5
654
  8
LAYER_1
 10
3.335065921072244
 20
22.83138936679499
 30
0.0
  0
VERTEX
  5
655
  8
LAYER_1
 10
3.339974850238498
 20
23.34838388488548
 30
0.0
  0
VERTEX
  5
656
  8
LAYER_1
 10
3.335065921072244
 20
23.86537840297597
 30
0.0
  0
VERTEX
  5
657
  8
LAYER_1
 10
3.320378403488167
 20
24.38080187137158
 30
0.0
  0
VERTEX
  5
658
  8
LAYER_1
 10
3.295971202358295
 20
24.89461502015762
 30
0.0
  0
VERTEX
  5
659
  8
LAYER_1
 10
3.261903222554656
 20
25.40677857941941
 30
0.0
  0
VERTEX
  5
65A
  8
LAYER_1
 10
3.218233368949277
 20
25.91725327924226
 30
0.0
  0
VERTEX
  5
65B
  8
LAYER_1
 10
3.165020546414187
 20
26.42599984971147
 30
0.0
  0
VERTEX
  5
65C
  8
LAYER_1
 10
3.102323659821412
 20
26.93297902091238
 30
0.0
  0
VERTEX
  5
65D
  8
LAYER_1
 10
3.03020161404298
 20
27.4381515229303
 30
0.0
  0
VERTEX
  5
65E
  8
LAYER_1
 10
2.94871331395092
 20
27.94147808585054
 30
0.0
  0
VERTEX
  5
65F
  8
LAYER_1
 10
2.857917664417259
 20
28.44291943975841
 30
0.0
  0
VERTEX
  5
660
  8
LAYER_1
 10
2.757873570314026
 20
28.94243631473922
 30
0.0
  0
VERTEX
  5
661
  8
LAYER_1
 10
2.648639936513247
 20
29.43998944087831
 30
0.0
  0
VERTEX
  5
662
  8
LAYER_1
 10
2.53027566788695
 20
29.93553954826097
 30
0.0
  0
VERTEX
  5
663
  8
LAYER_1
 10
2.402839669307164
 20
30.42904736697252
 30
0.0
  0
VERTEX
  5
664
  8
LAYER_1
 10
2.266390845645915
 20
30.92047362709829
 30
0.0
  0
VERTEX
  5
665
  8
LAYER_1
 10
2.120988101775231
 20
31.40977905872357
 30
0.0
  0
VERTEX
  5
666
  8
LAYER_1
 10
1.966690342567142
 20
31.89692439193369
 30
0.0
  0
VERTEX
  5
667
  8
LAYER_1
 10
1.803556472893673
 20
32.38187035681398
 30
0.0
  0
VERTEX
  5
668
  8
LAYER_1
 10
1.631645397626853
 20
32.86457768344972
 30
0.0
  0
VERTEX
  5
669
  8
LAYER_1
 10
1.45101602163871
 20
33.34500710192624
 30
0.0
  0
VERTEX
  5
66A
  8
LAYER_1
 10
1.261727249801271
 20
33.82311934232887
 30
0.0
  0
VERTEX
  5
66B
  8
LAYER_1
 10
1.063837986986565
 20
34.2988751347429
 30
0.0
  0
VERTEX
  5
66C
  8
LAYER_1
 10
0.857407138066618
 20
34.77223520925367
 30
0.0
  0
VERTEX
  5
66D
  8
LAYER_1
 10
0.6424936079134589
 20
35.24316029594648
 30
0.0
  0
VERTEX
  5
66E
  8
LAYER_1
 10
0.4191563013991151
 20
35.71161112490664
 30
0.0
  0
VERTEX
  5
66F
  8
LAYER_1
 10
0.1874541233956144
 20
36.17754842621947
 30
0.0
  0
VERTEX
  5
670
  8
LAYER_1
 10
-0.0525540212250155
 20
36.64093292997029
 30
0.0
  0
VERTEX
  5
671
  8
LAYER_1
 10
-0.3008092275907467
 20
37.10172536624442
 30
0.0
  0
VERTEX
  5
672
  8
LAYER_1
 10
-0.5572525908295515
 20
37.55988646512715
 30
0.0
  0
VERTEX
  5
673
  8
LAYER_1
 10
-0.8218252060694022
 20
38.01537695670382
 30
0.0
  0
VERTEX
  5
674
  8
LAYER_1
 10
-1.094468168438271
 20
38.46815757105973
 30
0.0
  0
VERTEX
  5
675
  8
LAYER_1
 10
-1.375122573064131
 20
38.91818903828022
 30
0.0
  0
VERTEX
  5
676
  8
LAYER_1
 10
-1.663729515074952
 20
39.36543208845058
 30
0.0
  0
VERTEX
  5
677
  8
LAYER_1
 10
-1.960230089598709
 20
39.80984745165611
 30
0.0
  0
VERTEX
  5
678
  8
LAYER_1
 10
-2.264565391763373
 20
40.25139585798216
 30
0.0
  0
VERTEX
  5
679
  8
LAYER_1
 10
-2.576676516696916
 20
40.69003803751403
 30
0.0
  0
VERTEX
  5
67A
  8
LAYER_1
 10
-2.896504559527311
 20
41.12573472033704
 30
0.0
  0
VERTEX
  5
67B
  8
LAYER_1
 10
-3.22399061538253
 20
41.55844663653649
 30
0.0
  0
VERTEX
  5
67C
  8
LAYER_1
 10
-3.559075779390545
 20
41.9881345161977
 30
0.0
  0
VERTEX
  5
67D
  8
LAYER_1
 10
-3.901701146679329
 20
42.414759089406
 30
0.0
  0
VERTEX
  5
67E
  8
LAYER_1
 10
-4.251807812376854
 20
42.83828108624668
 30
0.0
  0
VERTEX
  5
67F
  8
LAYER_1
 10
-4.609336871611092
 20
43.25866123680508
 30
0.0
  0
VERTEX
  5
680
  8
LAYER_1
 10
-4.974229419510014
 20
43.67586027116651
 30
0.0
  0
VERTEX
  5
681
  8
LAYER_1
 10
-5.346426551201594
 20
44.08983891941627
 30
0.0
  0
VERTEX
  5
682
  8
LAYER_1
 10
-6.112498946474614
 20
44.90797797792207
 30
0.0
  0
VERTEX
  5
683
  8
LAYER_1
 10
-6.907082818453931
 20
45.71276425300501
 30
0.0
  0
VERTEX
  5
684
  8
LAYER_1
 10
-7.729706928163323
 20
46.50388358534758
 30
0.0
  0
VERTEX
  5
685
  8
LAYER_1
 10
-8.579900036626569
 20
47.28102181563234
 30
0.0
  0
VERTEX
  5
686
  8
LAYER_1
 10
-9.457190904867446
 20
48.04386478454178
 30
0.0
  0
VERTEX
  5
687
  8
LAYER_1
 10
-10.36110829390973
 20
48.79209833275843
 30
0.0
  0
VERTEX
  5
688
  8
LAYER_1
 10
-11.2911809647772
 20
49.5254083009648
 30
0.0
  0
VERTEX
  5
689
  8
LAYER_1
 10
-12.24693767849364
 20
50.24348052984342
 30
0.0
  0
VERTEX
  5
68A
  8
LAYER_1
 10
-13.22790719608281
 20
50.9460008600768
 30
0.0
  0
VERTEX
  5
68B
  8
LAYER_1
 10
-14.23361827856851
 20
51.63265513234747
 30
0.0
  0
VERTEX
  5
68C
  8
LAYER_1
 10
-15.26359968697451
 20
52.30312918733793
 30
0.0
  0
VERTEX
  5
68D
  8
LAYER_1
 10
-16.31738018232459
 20
52.95710886573072
 30
0.0
  0
VERTEX
  5
68E
  8
LAYER_1
 10
-17.39448852564252
 20
53.59428000820834
 30
0.0
  0
VERTEX
  5
68F
  8
LAYER_1
 10
-18.49445347795208
 20
54.21432845545333
 30
0.0
  0
VERTEX
  5
690
  8
LAYER_1
 10
-19.61680380027705
 20
54.81694004814818
 30
0.0
  0
VERTEX
  5
691
  8
LAYER_1
 10
-20.76106825364122
 20
55.40180062697542
 30
0.0
  0
VERTEX
  5
692
  8
LAYER_1
 10
-21.92677559906835
 20
55.96859603261758
 30
0.0
  0
VERTEX
  5
693
  8
LAYER_1
 10
-23.11345459758222
 20
56.51701210575718
 30
0.0
  0
VERTEX
  5
694
  8
LAYER_1
 10
-24.32063401020662
 20
57.04673468707672
 30
0.0
  0
VERTEX
  5
695
  8
LAYER_1
 10
-25.54784259796532
 20
57.55744961725874
 30
0.0
  0
VERTEX
  5
696
  8
LAYER_1
 10
-26.7946091218821
 20
58.04884273698575
 30
0.0
  0
VERTEX
  5
697
  8
LAYER_1
 10
-28.06046234298073
 20
58.52059988694025
 30
0.0
  0
VERTEX
  5
698
  8
LAYER_1
 10
-29.344931022285
 20
58.97240690780478
 30
0.0
  0
VERTEX
  5
699
  8
LAYER_1
 10
-30.64754392081868
 20
59.40394964026186
 30
0.0
  0
VERTEX
  5
69A
  8
LAYER_1
 10
-31.96782979960555
 20
59.814913924994
 30
0.0
  0
VERTEX
  5
69B
  8
LAYER_1
 10
-33.3053174196694
 20
60.20498560268372
 30
0.0
  0
VERTEX
  5
69C
  8
LAYER_1
 10
-34.65953554203399
 20
60.57385051401354
 30
0.0
  0
VERTEX
  5
69D
  8
LAYER_1
 10
-36.03001292772311
 20
60.92119449966598
 30
0.0
  0
VERTEX
  5
69E
  8
LAYER_1
 10
-37.41627833776052
 20
61.24670340032355
 30
0.0
  0
VERTEX
  5
69F
  8
LAYER_1
 10
-38.81786053317002
 20
61.55006305666878
 30
0.0
  0
VERTEX
  5
6A0
  8
LAYER_1
 10
-40.23428827497538
 20
61.83095930938418
 30
0.0
  0
VERTEX
  5
6A1
  8
LAYER_1
 10
-41.66509032420038
 20
62.08907799915228
 30
0.0
  0
VERTEX
  5
6A2
  8
LAYER_1
 10
-43.10979544186878
 20
62.32410496665558
 30
0.0
  0
VERTEX
  5
6A3
  8
LAYER_1
 10
-44.56793238900439
 20
62.53572605257662
 30
0.0
  0
VERTEX
  5
6A4
  8
LAYER_1
 10
-46.03902992663096
 20
62.72362709759791
 30
0.0
  0
VERTEX
  5
6A5
  8
LAYER_1
 10
-47.52261681577229
 20
62.88749394240196
 30
0.0
  0
VERTEX
  5
6A6
  8
LAYER_1
 10
-49.01822181745214
 20
63.0270124276713
 30
0.0
  0
VERTEX
  5
6A7
  8
LAYER_1
 10
-50.52537369269429
 20
63.14186839408845
 30
0.0
  0
VERTEX
  5
6A8
  8
LAYER_1
 10
-52.04360120252254
 20
63.23174768233592
 30
0.0
  0
VERTEX
  5
6A9
  8
LAYER_1
 10
-53.57243310796063
 20
63.29633613309623
 30
0.0
  0
VERTEX
  5
6AA
  8
LAYER_1
 10
-55.11139817003237
 20
63.33531958705191
 30
0.0
  0
SEQEND
  5
830
  8
LAYER_1
  0
POLYLINE
  5
6C
  8
LAYER_1
 66
     1
 10
0.0
 20
0.0
 30
0.0
 70
     1
  0
VERTEX
  5
6AB
  8
LAYER_1
 10
-137.5963550167476
 20
11.7737551969139
 30
0.0
  0
VERTEX
  5
6AC
  8
LAYER_1
 10
-136.5072544633845
 20
10.872233021505
 30
0.0
  0
VERTEX
  5
6AD
  8
LAYER_1
 10
-135.4447296944532
 20
9.948321033002632
 30
0.0
  0
VERTEX
  5
6AE
  8
LAYER_1
 10
-134.409459913903
 20
9.002009288374158
 30
0.0
  0
VERTEX
  5
6AF
  8
LAYER_1
 10
-133.4021588696019
 20
8.033285761334756
 30
0.0
  0
VERTEX
  5
6B0
  8
LAYER_1
 10
-132.4235777302497
 20
7.0421397073323
 30
0.0
  0
VERTEX
  5
6B1
  8
LAYER_1
 10
-131.4745079099053
 20
6.028565669398578
 30
0.0
  0
VERTEX
  5
6B2
  8
LAYER_1
 10
-130.5557836943158
 20
4.992568171141958
 30
0.0
  0
VERTEX
  5
6B3
  8
LAYER_1
 10
-129.6682846088047
 20
3.934167134425426
 30
0.0
  0
VERTEX
  5
6B4
  8
LAYER_1
 10
-128.8129373426168
 20
2.85340406363952
 30
0.0
  0
VERTEX
  5
6B5
  8
LAYER_1
 10
-127.9907171266937
 20
1.750348983473433
 30
0.0
  0
VERTEX
  5
6B6
  8
LAYER_1
 10
-127.2026483588238
 20
0.6251081170875672
 30
0.0
  0
VERTEX
  5
6B7
  8
LAYER_1
 10
-126.4498042910677
 20
-0.5221677721465845
 30
0.0
  0
VERTEX
  5
6B8
  8
LAYER_1
 10
-125.7333056205503
 20
-1.691274467889397
 30
0.0
  0
VERTEX
  5
6B9
  8
LAYER_1
 10
-125.0543177269251
 20
-2.881944993428132
 30
0.0
  0
VERTEX
  5
6BA
  8
LAYER_1
 10
-124.4140464290363
 20
-4.093840107821105
 30
0.0
  0
VERTEX
  5
6BB
  8
LAYER_1
 10
-123.8137320564679
 20
-5.326538900703833
 30
0.0
  0
VERTEX
  5
6BC
  8
LAYER_1
 10
-123.2546417504168
 20
-6.579529817540839
 30
0.0
  0
VERTEX
  5
6BD
  8
LAYER_1
 10
-122.7380599048306
 20
-7.852202502113011
 30
0.0
  0
VERTEX
  5
6BE
  8
LAYER_1
 10
-122.265276794959
 20
-9.143840903275356
 30
0.0
  0
VERTEX
  5
6BF
  8
LAYER_1
 10
-121.8375755015846
 20
-10.45361809127376
 30
0.0
  0
VERTEX
  5
6C0
  8
LAYER_1
 10
-121.456217343974
 20
-11.7805932603415
 30
0.0
  0
VERTEX
  5
6C1
  8
LAYER_1
 10
-121.1224261969878
 20
-13.12371132444701
 30
0.0
  0
VERTEX
  5
6C2
  8
LAYER_1
 10
-120.8373721289068
 20
-14.48180548294209
 30
0.0
  0
VERTEX
  5
6C3
  8
LAYER_1
 10
-120.6021549309922
 20
-15.85360299839982
 30
0.0
  0
VERTEX
  5
6C4
  8
LAYER_1
 10
-120.4177881901237
 20
-17.23773431127943
 30
0.0
  0
VERTEX
  5
6C5
  8
LAYER_1
 10
-120.2851845872906
 20
-18.6327454356479
 30
0.0
  0
VERTEX
  5
6C6
  8
LAYER_1
 10
-120.2051431291589
 20
-20.03711340692922
 30
0.0
  0
VERTEX
  5
6C7
  8
LAYER_1
 10
-120.1783426538427
 20
-21.44906806425302
 30
0.0
  0
VERTEX
  5
6C8
  8
LAYER_1
 10
-120.2051431291589
 20
-22.86102272157683
 30
0.0
  0
VERTEX
  5
6C9
  8
LAYER_1
 10
-120.2851845872906
 20
-24.26539069285814
 30
0.0
  0
VERTEX
  5
6CA
  8
LAYER_1
 10
-120.4177881901237
 20
-25.66040181722661
 30
0.0
  0
VERTEX
  5
6CB
  8
LAYER_1
 10
-120.6021549309922
 20
-27.04453313010623
 30
0.0
  0
VERTEX
  5
6CC
  8
LAYER_1
 10
-120.8373721289068
 20
-28.41633064556396
 30
0.0
  0
VERTEX
  5
6CD
  8
LAYER_1
 10
-121.1224261969878
 20
-29.77442480405904
 30
0.0
  0
VERTEX
  5
6CE
  8
LAYER_1
 10
-121.456217343974
 20
-31.11754286816455
 30
0.0
  0
VERTEX
  5
6CF
  8
LAYER_1
 10
-121.8375755015846
 20
-32.44451803723229
 30
0.0
  0
VERTEX
  5
6D0
  8
LAYER_1
 10
-122.265276794959
 20
-33.75429522523069
 30
0.0
  0
VERTEX
  5
6D1
  8
LAYER_1
 10
-122.7380599048306
 20
-35.04593362639304
 30
0.0
  0
VERTEX
  5
6D2
  8
LAYER_1
 10
-123.2546417504168
 20
-36.31860631096521
 30
0.0
  0
VERTEX
  5
6D3
  8
LAYER_1
 10
-123.8137320564679
 20
-37.57159722780222
 30
0.0
  0
VERTEX
  5
6D4
  8
LAYER_1
 10
-124.4140464290363
 20
-38.80429602068494
 30
0.0
  0
VERTEX
  5
6D5
  8
LAYER_1
 10
-125.0543177269251
 20
-40.01619113507792
 30
0.0
  0
VERTEX
  5
6D6
  8
LAYER_1
 10
-125.7333056205503
 20
-41.20686166061665
 30
0.0
  0
VERTEX
  5
6D7
  8
LAYER_1
 10
-126.4498042910677
 20
-42.37596835635946
 30
0.0
  0
VERTEX
  5
6D8
  8
LAYER_1
 10
-127.2026483588238
 20
-43.52324424559361
 30
0.0
  0
VERTEX
  5
6D9
  8
LAYER_1
 10
-127.9907171266937
 20
-44.64848511197948
 30
0.0
  0
VERTEX
  5
6DA
  8
LAYER_1
 10
-128.8129373426168
 20
-45.75154019214556
 30
0.0
  0
VERTEX
  5
6DB
  8
LAYER_1
 10
-129.6682846088047
 20
-46.83230326293147
 30
0.0
  0
VERTEX
  5
6DC
  8
LAYER_1
 10
-130.5557836943158
 20
-47.890704299648
 30
0.0
  0
VERTEX
  5
6DD
  8
LAYER_1
 10
-131.4745079099053
 20
-48.92670179790462
 30
0.0
  0
VERTEX
  5
6DE
  8
LAYER_1
 10
-132.4235777302497
 20
-49.94027583583834
 30
0.0
  0
VERTEX
  5
6DF
  8
LAYER_1
 10
-133.4021588696019
 20
-50.9314218898408
 30
0.0
  0
VERTEX
  5
6E0
  8
LAYER_1
 10
-134.409459913903
 20
-51.9001454168802
 30
0.0
  0
VERTEX
  5
6E1
  8
LAYER_1
 10
-135.4447296944532
 20
-52.84645716150867
 30
0.0
  0
VERTEX
  5
6E2
  8
LAYER_1
 10
-136.5072544633845
 20
-53.77036915001104
 30
0.0
  0
VERTEX
  5
6E3
  8
LAYER_1
 10
-137.5963550167476
 20
-54.67189132541994
 30
0.0
  0
VERTEX
  5
6E4
  8
LAYER_1
 10
-138.711383787912
 20
-55.55102877275663
 30
0.0
  0
VERTEX
  5
6E5
  8
LAYER_1
 10
-139.8517220038307
 20
-56.40777944194729
 30
0.0
  0
VERTEX
  5
6E6
  8
LAYER_1
 10
-141.0167769382211
 20
-57.24213235793746
 30
0.0
  0
VERTEX
  5
6E7
  8
LAYER_1
 10
-142.205979279996
 20
-58.05406620449963
 30
0.0
  0
VERTEX
  5
6E8
  8
LAYER_1
 10
-143.4187806649684
 20
-58.84354828173405
 30
0.0
  0
VERTEX
  5
6E9
  8
LAYER_1
 10
-144.6546513489998
 20
-59.61053373772761
 30
0.0
  0
VERTEX
  5
6EA
  8
LAYER_1
 10
-145.9130780653764
 20
-60.35496506040095
 30
0.0
  0
VERTEX
  5
6EB
  8
LAYER_1
 10
-147.1935620323607
 20
-61.0767717823956
 30
0.0
  0
VERTEX
  5
6EC
  8
LAYER_1
 10
-148.4956171406052
 20
-61.77587034836056
 30
0.0
  0
VERTEX
  5
6ED
  8
LAYER_1
 10
-149.8187682863759
 20
-62.45216413939948
 30
0.0
  0
VERTEX
  5
6EE
  8
LAYER_1
 10
-151.1625498645558
 20
-63.10554359006806
 30
0.0
  0
VERTEX
  5
6EF
  8
LAYER_1
 10
-152.5265043961085
 20
-63.73588641189149
 30
0.0
  0
VERTEX
  5
6F0
  8
LAYER_1
 10
-153.9101813013517
 20
-64.3430578832386
 30
0.0
  0
VERTEX
  5
6F1
  8
LAYER_1
 10
-155.3131357727657
 20
-64.92691119332909
 30
0.0
  0
VERTEX
  5
6F2
  8
LAYER_1
 10
-156.7349277822618
 20
-65.48728781418055
 30
0.0
  0
VERTEX
  5
6F3
  8
LAYER_1
 10
-158.1751211748893
 20
-66.02401791795734
 30
0.0
  0
VERTEX
  5
6F4
  8
LAYER_1
 10
-159.6332828664422
 20
-66.53692080130446
 30
0.0
  0
VERTEX
  5
6F5
  8
LAYER_1
 10
-161.1089821122264
 20
-67.02580532365124
 30
0.0
  0
VERTEX
  5
6F6
  8
LAYER_1
 10
-162.6017898592077
 20
-67.49047034551499
 30
0.0
  0
VERTEX
  5
6F7
  8
LAYER_1
 10
-164.1112781614616
 20
-67.93070517553592
 30
0.0
  0
VERTEX
  5
6F8
  8
LAYER_1
 10
-165.6370196558678
 20
-68.3462900017958
 30
0.0
  0
VERTEX
  5
6F9
  8
LAYER_1
 10
-167.1785870871359
 20
-68.73699632139055
 30
0.0
  0
VERTEX
  5
6FA
  8
LAYER_1
 10
-168.7355528874
 20
-69.10258737000281
 30
0.0
  0
VERTEX
  5
6FB
  8
LAYER_1
 10
-170.3074887841908
 20
-69.44281852877343
 30
0.0
  0
VERTEX
  5
6FC
  8
LAYER_1
 10
-171.8939654577376
 20
-69.7574377224419
 30
0.0
  0
VERTEX
  5
6FD
  8
LAYER_1
 10
-173.4945522209714
 20
-70.04618581050185
 30
0.0
  0
VERTEX
  5
6FE
  8
LAYER_1
 10
-175.1088167303065
 20
-70.30879697486402
 30
0.0
  0
VERTEX
  5
6FF
  8
LAYER_1
 10
-176.7363247208673
 20
-70.54499907434096
 30
0.0
  0
VERTEX
  5
700
  8
LAYER_1
 10
-178.3766397637633
 20
-70.75451401310151
 30
0.0
  0
VERTEX
  5
701
  8
LAYER_1
 10
-180.0293230401699
 20
-70.9370580864243
 30
0.0
  0
VERTEX
  5
702
  8
LAYER_1
 10
-181.693933133964
 20
-71.09234232121257
 30
0.0
  0
VERTEX
  5
703
  8
LAYER_1
 10
-183.3700258375652
 20
-71.2200728112703
 30
0.0
  0
VERTEX
  5
704
  8
LAYER_1
 10
-185.0571539728376
 20
-71.31995104210095
 30
0.0
  0
VERTEX
  5
705
  8
LAYER_1
 10
-186.7548672217058
 20
-71.39167421046754
 30
0.0
  0
VERTEX
  5
706
  8
LAYER_1
 10
-188.462711970195
 20
-71.4349355456989
 30
0.0
  0
VERTEX
  5
707
  8
LAYER_1
 10
-190.1801439050437
 20
-71.44942389279471
 30
0.0
  0
VERTEX
  5
708
  8
LAYER_1
 10
-191.8975758398924
 20
-71.4349355456989
 30
0.0
  0
VERTEX
  5
709
  8
LAYER_1
 10
-193.6054205883815
 20
-71.39167421046754
 30
0.0
  0
VERTEX
  5
70A
  8
LAYER_1
 10
-195.3031338372498
 20
-71.31995104210095
 30
0.0
  0
VERTEX
  5
70B
  8
LAYER_1
 10
-196.9902619725221
 20
-71.2200728112703
 30
0.0
  0
VERTEX
  5
70C
  8
LAYER_1
 10
-198.6663546761233
 20
-71.09234232121257
 30
0.0
  0
VERTEX
  5
70D
  8
LAYER_1
 10
-200.3309647699175
 20
-70.9370580864243
 30
0.0
  0
VERTEX
  5
70E
  8
LAYER_1
 10
-201.9836480463241
 20
-70.75451401310151
 30
0.0
  0
VERTEX
  5
70F
  8
LAYER_1
 10
-203.6239630892201
 20
-70.54499907434096
 30
0.0
  0
VERTEX
  5
710
  8
LAYER_1
 10
-205.2514710797809
 20
-70.30879697486402
 30
0.0
  0
VERTEX
  5
711
  8
LAYER_1
 10
-206.865735589116
 20
-70.04618581050185
 30
0.0
  0
VERTEX
  5
712
  8
LAYER_1
 10
-208.4663223523498
 20
-69.7574377224419
 30
0.0
  0
VERTEX
  5
713
  8
LAYER_1
 10
-210.0527990258965
 20
-69.44281852877343
 30
0.0
  0
VERTEX
  5
714
  8
LAYER_1
 10
-211.6247349226874
 20
-69.10258737000281
 30
0.0
  0
VERTEX
  5
715
  8
LAYER_1
 10
-213.1817007229515
 20
-68.73699632139055
 30
0.0
  0
VERTEX
  5
716
  8
LAYER_1
 10
-214.7232681542196
 20
-68.3462900017958
 30
0.0
  0
VERTEX
  5
717
  8
LAYER_1
 10
-216.2490096486258
 20
-67.93070517553592
 30
0.0
  0
VERTEX
  5
718
  8
LAYER_1
 10
-217.7584979508797
 20
-67.49047034551499
 30
0.0
  0
VERTEX
  5
719
  8
LAYER_1
 10
-219.251305697861
 20
-67.02580532365121
 30
0.0
  0
VERTEX
  5
71A
  8
LAYER_1
 10
-220.7270049436452
 20
-66.53692080130443
 30
0.0
  0
VERTEX
  5
71B
  8
LAYER_1
 10
-222.1851666351981
 20
-66.02401791795731
 30
0.0
  0
VERTEX
  5
71C
  8
LAYER_1
 10
-223.6253600278255
 20
-65.48728781418052
 30
0.0
  0
VERTEX
  5
71D
  8
LAYER_1
 10
-225.0471520373217
 20
-64.92691119332906
 30
0.0
  0
VERTEX
  5
71E
  8
LAYER_1
 10
-226.4501065087356
 20
-64.34305788323857
 30
0.0
  0
VERTEX
  5
71F
  8
LAYER_1
 10
-227.8337834139788
 20
-63.73588641189148
 30
0.0
  0
VERTEX
  5
720
  8
LAYER_1
 10
-229.1977379455316
 20
-63.10554359006805
 30
0.0
  0
VERTEX
  5
721
  8
LAYER_1
 10
-230.5415195237115
 20
-62.45216413939946
 30
0.0
  0
VERTEX
  5
722
  8
LAYER_1
 10
-231.8646706694822
 20
-61.77587034836055
 30
0.0
  0
VERTEX
  5
723
  8
LAYER_1
 10
-233.1667257777267
 20
-61.07677178239559
 30
0.0
  0
VERTEX
  5
724
  8
LAYER_1
 10
-234.447209744711
 20
-60.35496506040094
 30
0.0
  0
VERTEX
  5
725
  8
LAYER_1
 10
-235.7056364610876
 20
-59.6105337377276
 30
0.0
  0
VERTEX
  5
726
  8
LAYER_1
 10
-236.941507145119
 20
-58.84354828173404
 30
0.0
  0
VERTEX
  5
727
  8
LAYER_1
 10
-238.1543085300914
 20
-58.05406620449961
 30
0.0
  0
VERTEX
  5
728
  8
LAYER_1
 10
-239.3435108718664
 20
-57.24213235793744
 30
0.0
  0
VERTEX
  5
729
  8
LAYER_1
 10
-240.5085658062567
 20
-56.40777944194728
 30
0.0
  0
VERTEX
  5
72A
  8
LAYER_1
 10
-241.6489040221755
 20
-55.55102877275662
 30
0.0
  0
VERTEX
  5
72B
  8
LAYER_1
 10
-242.7639327933398
 20
-54.67189132541993
 30
0.0
  0
VERTEX
  5
72C
  8
LAYER_1
 10
-243.8530333467029
 20
-53.77036915001103
 30
0.0
  0
VERTEX
  5
72D
  8
LAYER_1
 10
-244.9155581156342
 20
-52.84645716150866
 30
0.0
  0
VERTEX
  5
72E
  8
LAYER_1
 10
-245.9508278961844
 20
-51.90014541688019
 30
0.0
  0
VERTEX
  5
72F
  8
LAYER_1
 10
-246.9581289404855
 20
-50.93142188984078
 30
0.0
  0
VERTEX
  5
730
  8
LAYER_1
 10
-247.9367100798377
 20
-49.94027583583833
 30
0.0
  0
VERTEX
  5
731
  8
LAYER_1
 10
-248.8857799001821
 20
-48.92670179790461
 30
0.0
  0
VERTEX
  5
732
  8
LAYER_1
 10
-249.8045041157716
 20
-47.89070429964799
 30
0.0
  0
VERTEX
  5
733
  8
LAYER_1
 10
-250.6920032012827
 20
-46.83230326293145
 30
0.0
  0
VERTEX
  5
734
  8
LAYER_1
 10
-251.5473504674706
 20
-45.75154019214555
 30
0.0
  0
VERTEX
  5
735
  8
LAYER_1
 10
-252.3695706833937
 20
-44.64848511197946
 30
0.0
  0
VERTEX
  5
736
  8
LAYER_1
 10
-253.1576394512636
 20
-43.5232442455936
 30
0.0
  0
VERTEX
  5
737
  8
LAYER_1
 10
-253.9104835190197
 20
-42.37596835635944
 30
0.0
  0
VERTEX
  5
738
  8
LAYER_1
 10
-254.6269821895371
 20
-41.20686166061664
 30
0.0
  0
VERTEX
  5
739
  8
LAYER_1
 10
-255.3059700831623
 20
-40.0161911350779
 30
0.0
  0
VERTEX
  5
73A
  8
LAYER_1
 10
-255.9462413810511
 20
-38.80429602068493
 30
0.0
  0
VERTEX
  5
73B
  8
LAYER_1
 10
-256.5465557536195
 20
-37.5715972278022
 30
0.0
  0
VERTEX
  5
73C
  8
LAYER_1
 10
-257.1056460596706
 20
-36.31860631096519
 30
0.0
  0
VERTEX
  5
73D
  8
LAYER_1
 10
-257.6222279052568
 20
-35.04593362639302
 30
0.0
  0
VERTEX
  5
73E
  8
LAYER_1
 10
-258.0950110151284
 20
-33.75429522523067
 30
0.0
  0
VERTEX
  5
73F
  8
LAYER_1
 10
-258.5227123085028
 20
-32.44451803723226
 30
0.0
  0
VERTEX
  5
740
  8
LAYER_1
 10
-258.9040704661134
 20
-31.11754286816453
 30
0.0
  0
VERTEX
  5
741
  8
LAYER_1
 10
-259.2378616130995
 20
-29.77442480405902
 30
0.0
  0
VERTEX
  5
742
  8
LAYER_1
 10
-259.5229156811806
 20
-28.41633064556394
 30
0.0
  0
VERTEX
  5
743
  8
LAYER_1
 10
-259.7581328790952
 20
-27.04453313010621
 30
0.0
  0
VERTEX
  5
744
  8
LAYER_1
 10
-259.9424996199637
 20
-25.66040181722659
 30
0.0
  0
VERTEX
  5
745
  8
LAYER_1
 10
-260.0751032227968
 20
-24.26539069285813
 30
0.0
  0
VERTEX
  5
746
  8
LAYER_1
 10
-260.1551446809285
 20
-22.86102272157681
 30
0.0
  0
VERTEX
  5
747
  8
LAYER_1
 10
-260.1819451562446
 20
-21.44906806425301
 30
0.0
  0
VERTEX
  5
748
  8
LAYER_1
 10
-260.1551446809285
 20
-20.0371134069292
 30
0.0
  0
VERTEX
  5
749
  8
LAYER_1
 10
-260.0751032227968
 20
-18.63274543564788
 30
0.0
  0
VERTEX
  5
74A
  8
LAYER_1
 10
-259.9424996199637
 20
-17.23773431127942
 30
0.0
  0
VERTEX
  5
74B
  8
LAYER_1
 10
-259.7581328790952
 20
-15.8536029983998
 30
0.0
  0
VERTEX
  5
74C
  8
LAYER_1
 10
-259.5229156811806
 20
-14.48180548294207
 30
0.0
  0
VERTEX
  5
74D
  8
LAYER_1
 10
-259.2378616130995
 20
-13.12371132444699
 30
0.0
  0
VERTEX
  5
74E
  8
LAYER_1
 10
-258.9040704661134
 20
-11.78059326034148
 30
0.0
  0
VERTEX
  5
74F
  8
LAYER_1
 10
-258.5227123085028
 20
-10.45361809127374
 30
0.0
  0
VERTEX
  5
750
  8
LAYER_1
 10
-258.0950110151284
 20
-9.143840903275338
 30
0.0
  0
VERTEX
  5
751
  8
LAYER_1
 10
-257.6222279052568
 20
-7.852202502112993
 30
0.0
  0
VERTEX
  5
752
  8
LAYER_1
 10
-257.1056460596706
 20
-6.579529817540822
 30
0.0
  0
VERTEX
  5
753
  8
LAYER_1
 10
-256.5465557536195
 20
-5.326538900703815
 30
0.0
  0
VERTEX
  5
754
  8
LAYER_1
 10
-255.9462413810511
 20
-4.093840107821091
 30
0.0
  0
VERTEX
  5
755
  8
LAYER_1
 10
-255.3059700831623
 20
-2.881944993428117
 30
0.0
  0
VERTEX
  5
756
  8
LAYER_1
 10
-254.6269821895371
 20
-1.691274467889382
 30
0.0
  0
VERTEX
  5
757
  8
LAYER_1
 10
-253.9104835190197
 20
-0.5221677721465703
 30
0.0
  0
VERTEX
  5
758
  8
LAYER_1
 10
-253.1576394512636
 20
0.6251081170875814
 30
0.0
  0
VERTEX
  5
759
  8
LAYER_1
 10
-252.3695706833937
 20
1.750348983473447
 30
0.0
  0
VERTEX
  5
75A
  8
LAYER_1
 10
-251.5473504674706
 20
2.853404063639534
 30
0.0
  0
VERTEX
  5
75B
  8
LAYER_1
 10
-250.6920032012827
 20
3.93416713442544
 30
0.0
  0
VERTEX
  5
75C
  8
LAYER_1
 10
-249.8045041157716
 20
4.992568171141972
 30
0.0
  0
VERTEX
  5
75D
  8
LAYER_1
 10
-248.8857799001821
 20
6.028565669398592
 30
0.0
  0
VERTEX
  5
75E
  8
LAYER_1
 10
-247.9367100798377
 20
7.042139707332314
 30
0.0
  0
VERTEX
  5
75F
  8
LAYER_1
 10
-246.9581289404855
 20
8.03328576133477
 30
0.0
  0
VERTEX
  5
760
  8
LAYER_1
 10
-245.9508278961844
 20
9.002009288374172
 30
0.0
  0
VERTEX
  5
761
  8
LAYER_1
 10
-244.9155581156342
 20
9.948321033002646
 30
0.0
  0
VERTEX
  5
762
  8
LAYER_1
 10
-243.8530333467029
 20
10.87223302150501
 30
0.0
  0
VERTEX
  5
763
  8
LAYER_1
 10
-242.7638532692323
 20
11.77380031988081
 30
0.0
 42
0.2347542949885487
  0
VERTEX
  5
764
  8
LAYER_1
 10
-254.4985191054004
 20
48.13287764361169
 30
0.0
 42
-0.6644137244268593
  0
VERTEX
  5
765
  8
LAYER_1
 10
-253.3510109964559
 20
50.85053414979911
 30
0.0
  0
VERTEX
  5
766
  8
LAYER_1
 10
-127.0049101766417
 20
50.85049174946644
 30
0.0
 42
-0.676845138543076
  0
VERTEX
  5
767
  8
LAYER_1
 10
-125.9008311362653
 20
48.09259985387639
 30
0.0
 42
0.2344091071340873
  0
SEQEND
  5
831
  8
LAYER_1
  0
POLYLINE
  5
6D
  8
LAYER_1
 66
     1
 10
0.0
 20
0.0
 30
0.0
 70
     1
  0
VERTEX
  5
768
  8
LAYER_1
 10
-109.2438140380576
 20
-9.874439376281442
 30
0.0
  0
VERTEX
  5
769
  8
LAYER_1
 10
-110.3329145914207
 20
-8.972917200872535
 30
0.0
  0
VERTEX
  5
76A
  8
LAYER_1
 10
-111.395439360352
 20
-8.049005212370167
 30
0.0
  0
VERTEX
  5
76B
  8
LAYER_1
 10
-112.4307091409022
 20
-7.102693467741695
 30
0.0
  0
VERTEX
  5
76C
  8
LAYER_1
 10
-113.4380101852033
 20
-6.133969940702293
 30
0.0
  0
VERTEX
  5
76D
  8
LAYER_1
 10
-114.4165913245555
 20
-5.142823886699837
 30
0.0
  0
VERTEX
  5
76E
  8
LAYER_1
 10
-115.3656611448999
 20
-4.129249848766117
 30
0.0
  0
VERTEX
  5
76F
  8
LAYER_1
 10
-116.2843853604894
 20
-3.093252350509497
 30
0.0
  0
VERTEX
  5
770
  8
LAYER_1
 10
-117.1718844460005
 20
-2.034851313792965
 30
0.0
  0
VERTEX
  5
771
  8
LAYER_1
 10
-118.0272317121884
 20
-0.9540882430070603
 30
0.0
  0
VERTEX
  5
772
  8
LAYER_1
 10
-118.8494519281115
 20
0.1489668371590263
 30
0.0
  0
VERTEX
  5
773
  8
LAYER_1
 10
-119.6375206959814
 20
1.274207703544894
 30
0.0
  0
VERTEX
  5
774
  8
LAYER_1
 10
-120.3903647637375
 20
2.421483592779046
 30
0.0
  0
VERTEX
  5
775
  8
LAYER_1
 10
-121.1068634342549
 20
3.590590288521858
 30
0.0
  0
VERTEX
  5
776
  8
LAYER_1
 10
-121.7858513278801
 20
4.781260814060591
 30
0.0
  0
VERTEX
  5
777
  8
LAYER_1
 10
-122.4261226257689
 20
5.993155928453564
 30
0.0
  0
VERTEX
  5
778
  8
LAYER_1
 10
-123.0264369983373
 20
7.22585472133629
 30
0.0
  0
VERTEX
  5
779
  8
LAYER_1
 10
-123.5855273043884
 20
8.478845638173297
 30
0.0
  0
VERTEX
  5
77A
  8
LAYER_1
 10
-124.1021091499746
 20
9.751518322745468
 30
0.0
  0
VERTEX
  5
77B
  8
LAYER_1
 10
-124.5748922598462
 20
11.04315672390782
 30
0.0
  0
VERTEX
  5
77C
  8
LAYER_1
 10
-125.0025935532206
 20
12.35293391190622
 30
0.0
  0
VERTEX
  5
77D
  8
LAYER_1
 10
-125.3839517108312
 20
13.67990908097396
 30
0.0
  0
VERTEX
  5
77E
  8
LAYER_1
 10
-125.7177428578174
 20
15.02302714507947
 30
0.0
  0
VERTEX
  5
77F
  8
LAYER_1
 10
-126.0027969258984
 20
16.38112130357455
 30
0.0
  0
VERTEX
  5
780
  8
LAYER_1
 10
-126.238014123813
 20
17.75291881903227
 30
0.0
  0
VERTEX
  5
781
  8
LAYER_1
 10
-126.4223808646815
 20
19.13705013191189
 30
0.0
  0
VERTEX
  5
782
  8
LAYER_1
 10
-126.5549844675146
 20
20.53206125628036
 30
0.0
  0
VERTEX
  5
783
  8
LAYER_1
 10
-126.6350259256463
 20
21.93642922756167
 30
0.0
  0
VERTEX
  5
784
  8
LAYER_1
 10
-126.6618264009625
 20
23.34838388488548
 30
0.0
  0
VERTEX
  5
785
  8
LAYER_1
 10
-126.6350259256463
 20
24.76033854220928
 30
0.0
  0
VERTEX
  5
786
  8
LAYER_1
 10
-126.5549844675146
 20
26.1647065134906
 30
0.0
  0
VERTEX
  5
787
  8
LAYER_1
 10
-126.4223808646815
 20
27.55971763785907
 30
0.0
  0
VERTEX
  5
788
  8
LAYER_1
 10
-126.238014123813
 20
28.94384895073868
 30
0.0
  0
VERTEX
  5
789
  8
LAYER_1
 10
-126.0027969258984
 20
30.31564646619641
 30
0.0
  0
VERTEX
  5
78A
  8
LAYER_1
 10
-125.7177428578174
 20
31.6737406246915
 30
0.0
  0
VERTEX
  5
78B
  8
LAYER_1
 10
-125.3839517108312
 20
33.01685868879701
 30
0.0
  0
VERTEX
  5
78C
  8
LAYER_1
 10
-125.0025935532206
 20
34.34383385786474
 30
0.0
  0
VERTEX
  5
78D
  8
LAYER_1
 10
-124.5748922598462
 20
35.65361104586315
 30
0.0
  0
VERTEX
  5
78E
  8
LAYER_1
 10
-124.1021091499746
 20
36.9452494470255
 30
0.0
  0
VERTEX
  5
78F
  8
LAYER_1
 10
-123.5855273043884
 20
38.21792213159767
 30
0.0
  0
VERTEX
  5
790
  8
LAYER_1
 10
-123.0264369983373
 20
39.47091304843467
 30
0.0
  0
VERTEX
  5
791
  8
LAYER_1
 10
-122.4261226257689
 20
40.7036118413174
 30
0.0
  0
VERTEX
  5
792
  8
LAYER_1
 10
-121.7858513278801
 20
41.91550695571037
 30
0.0
  0
VERTEX
  5
793
  8
LAYER_1
 10
-121.1068634342549
 20
43.10617748124911
 30
0.0
  0
VERTEX
  5
794
  8
LAYER_1
 10
-120.3903647637375
 20
44.27528417699191
 30
0.0
  0
VERTEX
  5
795
  8
LAYER_1
 10
-119.6375206959814
 20
45.42256006622606
 30
0.0
  0
VERTEX
  5
796
  8
LAYER_1
 10
-118.8494519281115
 20
46.54780093261192
 30
0.0
  0
VERTEX
  5
797
  8
LAYER_1
 10
-118.0272317121884
 20
47.65085601277801
 30
0.0
  0
VERTEX
  5
798
  8
LAYER_1
 10
-117.1718844460005
 20
48.73161908356391
 30
0.0
  0
VERTEX
  5
799
  8
LAYER_1
 10
-116.2843853604894
 20
49.79002012028045
 30
0.0
  0
VERTEX
  5
79A
  8
LAYER_1
 10
-115.3656611448999
 20
50.82601761853707
 30
0.0
  0
VERTEX
  5
79B
  8
LAYER_1
 10
-114.4165913245555
 20
51.83959165647079
 30
0.0
  0
VERTEX
  5
79C
  8
LAYER_1
 10
-113.4380101852033
 20
52.83073771047324
 30
0.0
  0
VERTEX
  5
79D
  8
LAYER_1
 10
-112.4307091409022
 20
53.79946123751265
 30
0.0
  0
VERTEX
  5
79E
  8
LAYER_1
 10
-111.395439360352
 20
54.74577298214112
 30
0.0
  0
VERTEX
  5
79F
  8
LAYER_1
 10
-110.3329145914207
 20
55.66968497064349
 30
0.0
  0
VERTEX
  5
7A0
  8
LAYER_1
 10
-109.2438140380576
 20
56.57120714605239
 30
0.0
  0
VERTEX
  5
7A1
  8
LAYER_1
 10
-108.1287852668932
 20
57.45034459338908
 30
0.0
  0
VERTEX
  5
7A2
  8
LAYER_1
 10
-106.9884470509745
 20
58.30709526257974
 30
0.0
  0
VERTEX
  5
7A3
  8
LAYER_1
 10
-105.8233921165841
 20
59.1414481785699
 30
0.0
  0
VERTEX
  5
7A4
  8
LAYER_1
 10
-104.6341897748092
 20
59.95338202513207
 30
0.0
  0
VERTEX
  5
7A5
  8
LAYER_1
 10
-103.4213883898368
 20
60.7428641023665
 30
0.0
  0
VERTEX
  5
7A6
  8
LAYER_1
 10
-102.1855177058054
 20
61.50984955836006
 30
0.0
  0
VERTEX
  5
7A7
  8
LAYER_1
 10
-100.9270909894288
 20
62.2542808810334
 30
0.0
  0
VERTEX
  5
7A8
  8
LAYER_1
 10
-99.64660702244451
 20
62.97608760302805
 30
0.0
  0
VERTEX
  5
7A9
  8
LAYER_1
 10
-98.34455191419998
 20
63.67518616899301
 30
0.0
  0
VERTEX
  5
7AA
  8
LAYER_1
 10
-97.0214007684293
 20
64.35147996003192
 30
0.0
  0
VERTEX
  5
7AB
  8
LAYER_1
 10
-95.67761919024939
 20
65.0048594107005
 30
0.0
  0
VERTEX
  5
7AC
  8
LAYER_1
 10
-94.31366465869665
 20
65.63520223252394
 30
0.0
  0
VERTEX
  5
7AD
  8
LAYER_1
 10
-92.92998775345346
 20
66.24237370387104
 30
0.0
  0
VERTEX
  5
7AE
  8
LAYER_1
 10
-91.52703328203948
 20
66.82622701396153
 30
0.0
  0
VERTEX
  5
7AF
  8
LAYER_1
 10
-90.10524127254335
 20
67.38660363481299
 30
0.0
  0
VERTEX
  5
7B0
  8
LAYER_1
 10
-88.66504787991595
 20
67.92333373858978
 30
0.0
  0
VERTEX
  5
7B1
  8
LAYER_1
 10
-87.20688618836299
 20
68.4362366219369
 30
0.0
  0
VERTEX
  5
7B2
  8
LAYER_1
 10
-85.73118694257879
 20
68.92512114428368
 30
0.0
  0
VERTEX
  5
7B3
  8
LAYER_1
 10
-84.23837919559752
 20
69.38978616614745
 30
0.0
  0
VERTEX
  5
7B4
  8
LAYER_1
 10
-82.72889089334363
 20
69.83002099616837
 30
0.0
  0
VERTEX
  5
7B5
  8
LAYER_1
 10
-81.20314939893738
 20
70.24560582242825
 30
0.0
  0
VERTEX
  5
7B6
  8
LAYER_1
 10
-79.66158196766933
 20
70.636312142023
 30
0.0
  0
VERTEX
  5
7B7
  8
LAYER_1
 10
-78.10461616740518
 20
71.00190319063526
 30
0.0
  0
VERTEX
  5
7B8
  8
LAYER_1
 10
-76.53268027061436
 20
71.34213434940588
 30
0.0
  0
VERTEX
  5
7B9
  8
LAYER_1
 10
-74.94620359706765
 20
71.65675354307436
 30
0.0
  0
VERTEX
  5
7BA
  8
LAYER_1
 10
-73.34561683383377
 20
71.9455016311343
 30
0.0
  0
VERTEX
  5
7BB
  8
LAYER_1
 10
-71.73135232449873
 20
72.20811279549648
 30
0.0
  0
VERTEX
  5
7BC
  8
LAYER_1
 10
-70.10384433393789
 20
72.44431489497342
 30
0.0
  0
VERTEX
  5
7BD
  8
LAYER_1
 10
-68.46352929104192
 20
72.65382983373397
 30
0.0
  0
VERTEX
  5
7BE
  8
LAYER_1
 10
-66.81084601463532
 20
72.83637390705675
 30
0.0
  0
VERTEX
  5
7BF
  8
LAYER_1
 10
-65.14623592084116
 20
72.99165814184502
 30
0.0
  0
VERTEX
  5
7C0
  8
LAYER_1
 10
-63.47014321723999
 20
73.11938863190275
 30
0.0
  0
VERTEX
  5
7C1
  8
LAYER_1
 10
-61.78301508196763
 20
73.2192668627334
 30
0.0
  0
VERTEX
  5
7C2
  8
LAYER_1
 10
-60.0853018330994
 20
73.2909900311
 30
0.0
  0
VERTEX
  5
7C3
  8
LAYER_1
 10
-58.37745708461025
 20
73.33425136633136
 30
0.0
  0
VERTEX
  5
7C4
  8
LAYER_1
 10
-56.66002514976153
 20
73.34873971342716
 30
0.0
  0
VERTEX
  5
7C5
  8
LAYER_1
 10
-54.94259321491281
 20
73.33425136633136
 30
0.0
  0
VERTEX
  5
7C6
  8
LAYER_1
 10
-53.23474846642366
 20
73.2909900311
 30
0.0
  0
VERTEX
  5
7C7
  8
LAYER_1
 10
-51.53703521755542
 20
73.2192668627334
 30
0.0
  0
VERTEX
  5
7C8
  8
LAYER_1
 10
-49.84990708228306
 20
73.11938863190275
 30
0.0
  0
VERTEX
  5
7C9
  8
LAYER_1
 10
-48.17381437868189
 20
72.99165814184502
 30
0.0
  0
VERTEX
  5
7CA
  8
LAYER_1
 10
-46.50920428488772
 20
72.83637390705675
 30
0.0
  0
VERTEX
  5
7CB
  8
LAYER_1
 10
-44.85652100848111
 20
72.65382983373397
 30
0.0
  0
VERTEX
  5
7CC
  8
LAYER_1
 10
-43.21620596558514
 20
72.44431489497342
 30
0.0
  0
VERTEX
  5
7CD
  8
LAYER_1
 10
-41.5886979750243
 20
72.20811279549648
 30
0.0
  0
VERTEX
  5
7CE
  8
LAYER_1
 10
-39.97443346568925
 20
71.9455016311343
 30
0.0
  0
VERTEX
  5
7CF
  8
LAYER_1
 10
-38.37384670245537
 20
71.65675354307436
 30
0.0
  0
VERTEX
  5
7D0
  8
LAYER_1
 10
-36.78737002890866
 20
71.34213434940588
 30
0.0
  0
VERTEX
  5
7D1
  8
LAYER_1
 10
-35.21543413211784
 20
71.00190319063526
 30
0.0
  0
VERTEX
  5
7D2
  8
LAYER_1
 10
-33.65846833185369
 20
70.636312142023
 30
0.0
  0
VERTEX
  5
7D3
  8
LAYER_1
 10
-32.11690090058565
 20
70.24560582242825
 30
0.0
  0
VERTEX
  5
7D4
  8
LAYER_1
 10
-30.5911594061794
 20
69.83002099616837
 30
0.0
  0
VERTEX
  5
7D5
  8
LAYER_1
 10
-29.08167110392551
 20
69.38978616614745
 30
0.0
  0
VERTEX
  5
7D6
  8
LAYER_1
 10
-27.58886335694424
 20
68.92512114428368
 30
0.0
  0
VERTEX
  5
7D7
  8
LAYER_1
 10
-26.11316411116005
 20
68.4362366219369
 30
0.0
  0
VERTEX
  5
7D8
  8
LAYER_1
 10
-24.65500241960708
 20
67.92333373858978
 30
0.0
  0
VERTEX
  5
7D9
  8
LAYER_1
 10
-23.21480902697967
 20
67.38660363481299
 30
0.0
  0
VERTEX
  5
7DA
  8
LAYER_1
 10
-21.79301701748354
 20
66.82622701396153
 30
0.0
  0
VERTEX
  5
7DB
  8
LAYER_1
 10
-20.39006254606957
 20
66.24237370387104
 30
0.0
  0
VERTEX
  5
7DC
  8
LAYER_1
 10
-19.00638564082637
 20
65.63520223252394
 30
0.0
  0
VERTEX
  5
7DD
  8
LAYER_1
 10
-17.64243110927364
 20
65.0048594107005
 30
0.0
  0
VERTEX
  5
7DE
  8
LAYER_1
 10
-16.29864953109372
 20
64.35147996003192
 30
0.0
  0
VERTEX
  5
7DF
  8
LAYER_1
 10
-14.97549838532303
 20
63.67518616899301
 30
0.0
  0
VERTEX
  5
7E0
  8
LAYER_1
 10
-13.6734432770785
 20
62.97608760302805
 30
0.0
  0
VERTEX
  5
7E1
  8
LAYER_1
 10
-12.39295931009418
 20
62.2542808810334
 30
0.0
  0
VERTEX
  5
7E2
  8
LAYER_1
 10
-11.13453259371762
 20
61.50984955836006
 30
0.0
  0
VERTEX
  5
7E3
  8
LAYER_1
 10
-9.898661909686219
 20
60.7428641023665
 30
0.0
  0
VERTEX
  5
7E4
  8
LAYER_1
 10
-8.68586052471381
 20
59.95338202513207
 30
0.0
  0
VERTEX
  5
7E5
  8
LAYER_1
 10
-7.496658182938866
 20
59.1414481785699
 30
0.0
  0
VERTEX
  5
7E6
  8
LAYER_1
 10
-6.331603248548511
 20
58.30709526257974
 30
0.0
  0
VERTEX
  5
7E7
  8
LAYER_1
 10
-5.191265032629765
 20
57.45034459338908
 30
0.0
  0
VERTEX
  5
7E8
  8
LAYER_1
 10
-4.076236261465404
 20
56.57120714605239
 30
0.0
  0
VERTEX
  5
7E9
  8
LAYER_1
 10
-2.987135708102308
 20
55.66968497064349
 30
0.0
  0
VERTEX
  5
7EA
  8
LAYER_1
 10
-1.924610939170968
 20
54.74577298214112
 30
0.0
  0
VERTEX
  5
7EB
  8
LAYER_1
 10
-0.889341158620816
 20
53.79946123751265
 30
0.0
  0
VERTEX
  5
7EC
  8
LAYER_1
 10
0.1179598856803139
 20
52.83073771047324
 30
0.0
  0
VERTEX
  5
7ED
  8
LAYER_1
 10
1.096541025032487
 20
51.83959165647079
 30
0.0
  0
VERTEX
  5
7EE
  8
LAYER_1
 10
2.045610845376935
 20
50.82601761853707
 30
0.0
  0
VERTEX
  5
7EF
  8
LAYER_1
 10
2.964335060966398
 20
49.79002012028045
 30
0.0
  0
VERTEX
  5
7F0
  8
LAYER_1
 10
3.851834146477479
 20
48.73161908356391
 30
0.0
  0
VERTEX
  5
7F1
  8
LAYER_1
 10
4.707181412665374
 20
47.65085601277801
 30
0.0
  0
VERTEX
  5
7F2
  8
LAYER_1
 10
5.529401628588527
 20
46.54780093261192
 30
0.0
  0
VERTEX
  5
7F3
  8
LAYER_1
 10
6.317470396458372
 20
45.42256006622606
 30
0.0
  0
VERTEX
  5
7F4
  8
LAYER_1
 10
7.070314464214462
 20
44.27528417699191
 30
0.0
  0
VERTEX
  5
7F5
  8
LAYER_1
 10
7.786813134731929
 20
43.10617748124911
 30
0.0
  0
VERTEX
  5
7F6
  8
LAYER_1
 10
8.465801028357092
 20
41.91550695571037
 30
0.0
  0
VERTEX
  5
7F7
  8
LAYER_1
 10
9.106072326245922
 20
40.7036118413174
 30
0.0
  0
VERTEX
  5
7F8
  8
LAYER_1
 10
9.706386698814313
 20
39.47091304843467
 30
0.0
  0
VERTEX
  5
7F9
  8
LAYER_1
 10
10.26547700486539
 20
38.21792213159767
 30
0.0
  0
VERTEX
  5
7FA
  8
LAYER_1
 10
10.78205885045158
 20
36.9452494470255
 30
0.0
  0
VERTEX
  5
7FB
  8
LAYER_1
 10
11.25484196032325
 20
35.65361104586315
 30
0.0
  0
VERTEX
  5
7FC
  8
LAYER_1
 10
11.68254325369766
 20
34.34383385786474
 30
0.0
  0
VERTEX
  5
7FD
  8
LAYER_1
 10
12.06390141130818
 20
33.01685868879701
 30
0.0
  0
VERTEX
  5
7FE
  8
LAYER_1
 10
12.39769255829437
 20
31.6737406246915
 30
0.0
  0
VERTEX
  5
7FF
  8
LAYER_1
 10
12.68274662637545
 20
30.31564646619641
 30
0.0
  0
VERTEX
  5
800
  8
LAYER_1
 10
12.91796382429006
 20
28.94384895073868
 30
0.0
  0
VERTEX
  5
801
  8
LAYER_1
 10
13.10233056515848
 20
27.55971763785907
 30
0.0
  0
VERTEX
  5
802
  8
LAYER_1
 10
13.2349341679916
 20
26.1647065134906
 30
0.0
  0
VERTEX
  5
803
  8
LAYER_1
 10
13.31497562612334
 20
24.76033854220928
 30
0.0
  0
VERTEX
  5
804
  8
LAYER_1
 10
13.34177610143946
 20
23.34838388488548
 30
0.0
  0
VERTEX
  5
805
  8
LAYER_1
 10
13.31497562612334
 20
21.93642922756167
 30
0.0
  0
VERTEX
  5
806
  8
LAYER_1
 10
13.2349341679916
 20
20.53206125628036
 30
0.0
  0
VERTEX
  5
807
  8
LAYER_1
 10
13.10233056515848
 20
19.13705013191189
 30
0.0
  0
VERTEX
  5
808
  8
LAYER_1
 10
12.91796382429006
 20
17.75291881903227
 30
0.0
  0
VERTEX
  5
809
  8
LAYER_1
 10
12.68274662637545
 20
16.38112130357455
 30
0.0
  0
VERTEX
  5
80A
  8
LAYER_1
 10
12.39769255829437
 20
15.02302714507947
 30
0.0
  0
VERTEX
  5
80B
  8
LAYER_1
 10
12.06390141130818
 20
13.67990908097396
 30
0.0
  0
VERTEX
  5
80C
  8
LAYER_1
 10
11.68254325369766
 20
12.35293391190622
 30
0.0
  0
VERTEX
  5
80D
  8
LAYER_1
 10
11.25484196032325
 20
11.04315672390782
 30
0.0
  0
VERTEX
  5
80E
  8
LAYER_1
 10
10.78205885045158
 20
9.751518322745468
 30
0.0
  0
VERTEX
  5
80F
  8
LAYER_1
 10
10.26547700486539
 20
8.478845638173297
 30
0.0
  0
VERTEX
  5
810
  8
LAYER_1
 10
9.706386698814313
 20
7.22585472133629
 30
0.0
  0
VERTEX
  5
811
  8
LAYER_1
 10
9.106072326245922
 20
5.993155928453564
 30
0.0
  0
VERTEX
  5
812
  8
LAYER_1
 10
8.465801028357092
 20
4.781260814060591
 30
0.0
  0
VERTEX
  5
813
  8
LAYER_1
 10
7.786813134731929
 20
3.590590288521858
 30
0.0
  0
VERTEX
  5
814
  8
LAYER_1
 10
7.070314464214462
 20
2.421483592779046
 30
0.0
  0
VERTEX
  5
815
  8
LAYER_1
 10
6.317470396458372
 20
1.274207703544894
 30
0.0
  0
VERTEX
  5
816
  8
LAYER_1
 10
5.529401628588527
 20
0.1489668371590263
 30
0.0
  0
VERTEX
  5
817
  8
LAYER_1
 10
4.707181412665374
 20
-0.9540882430070603
 30
0.0
  0
VERTEX
  5
818
  8
LAYER_1
 10
3.851834146477479
 20
-2.034851313792965
 30
0.0
  0
VERTEX
  5
819
  8
LAYER_1
 10
2.964335060966398
 20
-3.093252350509497
 30
0.0
  0
VERTEX
  5
81A
  8
LAYER_1
 10
2.045610845376935
 20
-4.129249848766117
 30
0.0
  0
VERTEX
  5
81B
  8
LAYER_1
 10
1.096541025032487
 20
-5.142823886699837
 30
0.0
  0
VERTEX
  5
81C
  8
LAYER_1
 10
0.1179598856803139
 20
-6.133969940702293
 30
0.0
  0
VERTEX
  5
81D
  8
LAYER_1
 10
-0.889341158620816
 20
-7.102693467741695
 30
0.0
  0
VERTEX
  5
81E
  8
LAYER_1
 10
-1.924610939170968
 20
-8.049005212370167
 30
0.0
  0
VERTEX
  5
81F
  8
LAYER_1
 10
-2.987135708102308
 20
-8.972917200872535
 30
0.0
  0
VERTEX
  5
820
  8
LAYER_1
 10
-4.07631578557293
 20
-9.87448449924833
 30
0.0
 42
0.2347542949885483
  0
VERTEX
  5
821
  8
LAYER_1
 10
7.658350050595175
 20
-46.23356182297923
 30
0.0
 42
-0.6644137245082556
  0
VERTEX
  5
822
  8
LAYER_1
 10
6.510841941288415
 20
-48.95121832916665
 30
0.0
  0
VERTEX
  5
823
  8
LAYER_1
 10
-119.8352588781635
 20
-48.95117592883399
 30
0.0
 42
-0.6768451385430762
  0
VERTEX
  5
824
  8
LAYER_1
 10
-120.9393379185399
 20
-46.19328403324394
 30
0.0
 42
0.2344091071340866
  0
SEQEND
  5
832
  8
LAYER_1
  0
ENDSEC
  0
EOF
