0
SECTION
2
HEADER
9
$INSUNITS
70
4
9
$ACADVER
1
AC1014
9
$HANDSEED
5
FFFF
0
ENDSEC
0
SECTION
2
TABLES
0
TABLE
2
VPORT
5
8
100
AcDbSymbolTable
0
ENDTAB
0
TABLE
2
LTYPE
5
5
100
AcDbSymbolTable
0
LTYPE
5
14
100
AcDbSymbolTableRecord
100
AcDbLinetypeTableRecord
2
BYBLOCK
70
0
0
LTYPE
5
15
100
AcDbSymbolTableRecord
100
AcDbLinetypeTableRecord
2
BYLAYER
70
0
0
ENDTAB
0
TABLE
2
LAYER
5
2
100
AcDbSymbolTable
70
2
0
LAYER
5
50
100
AcDbSymbolTableRecord
100
AcDbLayerTableRecord
2
0
70
0
6
CONTINUOUS
0
ENDTAB
0
TABLE
2
STYLE
5
3
100
AcDbSymbolTable
70
1
0
STYLE
5
11
100
AcDbSymbolTableRecord
100
AcDbTextStyleTableRecord
2
STANDARD
70
0
0
ENDTAB
0
TABLE
2
VIEW
5
6
100
AcDbSymbolTable
70
0
0
ENDTAB
0
TABLE
2
UCS
5
7
100
AcDbSymbolTable
70
0
0
ENDTAB
0
TABLE
2
APPID
5
9
100
AcDbSymbolTable
70
2
0
APPID
5
12
100
AcDbSymbolTableRecord
100
AcDbRegAppTableRecord
2
ACAD
70
0
0
ENDTAB
0
TABLE
2
DIMSTYLE
5
A
100
AcDbSymbolTable
70
1
0
ENDTAB
0
TABLE
2
BLOCK_RECORD
5
1
100
AcDbSymbolTable
70
1
0
BLOCK_RECORD
5
1F
100
AcDbSymbolTableRecord
100
AcDbBlockTableRecord
2
*MODEL_SPACE
0
BLOCK_RECORD
5
1B
100
AcDbSymbolTableRecord
100
AcDbBlockTableRecord
2
*PAPER_SPACE
0
ENDTAB
0
ENDSEC
0
SECTION
2
BLOCKS
0
BLOCK
5
20
100
AcDbEntity
100
AcDbBlockBegin
2
*MODEL_SPACE
0
ENDBLK
5
21
100
AcDbEntity
100
AcDbBlockEnd
0
BLOCK
5
1C
100
AcDbEntity
100
AcDbBlockBegin
2
*PAPER_SPACE
0
ENDBLK
5
1D
100
AcDbEntity
100
AcDbBlockEnd
0
ENDSEC
0
SECTION
2
ENTITIES
0
ARC
5
100
100
AcDbEntity
8
0
100
AcDbCircle
10
250.00000000000028
20
-425
30
0
40
577.16981903075975
210
0
220
-0
230
1
100
AcDbArc
50
75.574564892363128
51
107.65012421993016
0
ARC
5
101
100
AcDbEntity
8
0
100
AcDbCircle
10
161.34768579066019
20
-456.79346528964163
30
0
40
571.27240371667142
210
0
220
-0
230
1
100
AcDbArc
50
63.108328494221482
51
98.693562609054283
0
LINE
5
102
100
AcDbEntity
8
0
100
AcDbLine
10
702.24986403892717
20
100.50510257216821
30
0
11
702.24986403892717
21
74.999999999999986
31
0
0
LINE
5
103
100
AcDbEntity
8
0
100
AcDbLine
10
677.24986403892717
20
49.999999999999858
30
0
11
431.04471897658902
21
50
31
0
0
CIRCLE
5
104
100
AcDbEntity
8
0
100
AcDbCircle
10
450
20
125
30
0
40
25
210
0
220
0
230
1
0
CIRCLE
5
105
100
AcDbEntity
8
0
100
AcDbCircle
10
525
20
125
30
0
40
25
210
0
220
0
230
1
0
CIRCLE
5
106
100
AcDbEntity
8
0
100
AcDbCircle
10
600
20
125
30
0
40
25
210
0
220
0
230
1
0
CIRCLE
5
107
100
AcDbEntity
8
0
100
AcDbCircle
10
677.24986403892717
20
125
30
0
40
25
210
0
220
0
230
1
0
LINE
5
108
100
AcDbEntity
8
0
100
AcDbLine
10
485
20
125
30
0
11
490
21
125
31
0
0
LINE
5
109
100
AcDbEntity
8
0
100
AcDbLine
10
560
20
125
30
0
11
565
21
125
31
0
0
LINE
5
110
100
AcDbEntity
8
0
100
AcDbLine
10
635
20
125
30
0
11
642.24986403892717
21
125
31
0
0
ARC
5
111
100
AcDbEntity
8
0
100
AcDbCircle
10
450
20
125
30
0
40
35
210
0
220
0
230
1
100
AcDbArc
50
0
51
146.42118796980367
0
ARC
5
112
100
AcDbEntity
8
0
100
AcDbCircle
10
525
20
125
30
0
40
35
210
0
220
0
230
1
100
AcDbArc
50
0
51
180
0
ARC
5
113
100
AcDbEntity
8
0
100
AcDbCircle
10
600
20
125
30
0
40
35
210
0
220
0
230
1
100
AcDbArc
50
0
51
180
0
ARC
5
114
100
AcDbEntity
8
0
100
AcDbCircle
10
677.24986403892717
20
125
30
0
40
35.000000000000007
210
0
220
0
230
1
100
AcDbArc
50
-44.415308597192968
51
180
0
ARC
5
115
100
AcDbEntity
8
0
100
AcDbCircle
10
75
20
116.45775926509238
30
0
40
8.5422407349076224
210
0
220
-0
230
1
100
AcDbArc
50
90
51
287.13190474408162
0
ARC
5
116
100
AcDbEntity
8
0
100
AcDbCircle
10
677.24986403892694
20
75
30
0
40
25.000000000000142
210
-0
220
0
230
1
100
AcDbArc
50
270.00000000000051
51
360
0
ARC
5
117
100
AcDbEntity
8
0
100
AcDbCircle
10
431.04471897658919
20
75.000000000000981
30
0
40
25.000000000000981
210
0
220
0
230
1
100
AcDbArc
50
243.10832849422206
51
269.9999999999996
0
ARC
5
118
100
AcDbEntity
8
0
100
AcDbCircle
10
400.01245032856912
20
158.18500983646354
30
0
40
24.999999999999556
210
0
220
0
230
1
100
AcDbArc
50
255.57456489236225
51
326.42118796980401
0
ENDSEC
0
SECTION
2
OBJECTS
0
DICTIONARY
5
C
100
AcDbDictionary
3
ACAD_GROUP
350
D
3
ACAD_MLINESTYLE
350
17
0
DICTIONARY
5
D
100
AcDbDictionary
0
DICTIONARY
5
1A
330
C
100
AcDbDictionary
0
DICTIONARY
5
17
100
AcDbDictionary
0
ENDSEC
0
EOF
