  0
SECTION
  2
HEADER
  9
$ACADVER
  1
AC1009
  9
$DWGCODEPAGE
  3
ansi_1252
  9
$INSBASE
 10
0.0
 20
0.0
 30
0.0
  9
$EXTMIN
 10
-147.6766578188868
 20
-55.6980965333689
 30
0.0
  9
$EXTMAX
 10
624.569959990886
 20
100.0
 30
0.0
  9
$LIMMIN
 10
0.0
 20
0.0
  9
$LIMMAX
 10
12.0
 20
9.0
  9
$ORTHOMODE
 70
     0
  9
$REGENMODE
 70
     1
  9
$FILLMODE
 70
     1
  9
$QTEXTMODE
 70
     0
  9
$MIRRTEXT
 70
     1
  9
$DRAGMODE
 70
     2
  9
$LTSCALE
 40
1.0
  9
$OSMODE
 70
    37
  9
$ATTMODE
 70
     1
  9
$TEXTSIZE
 40
0.2
  9
$TRACEWID
 40
0.05
  9
$TEXTSTYLE
  7
STANDARD
  9
$CLAYER
  8
0
  9
$CELTYPE
  6
BYLAYER
  9
$CECOLOR
 62
   256
  9
$DIMSCALE
 40
1.0
  9
$DIMASZ
 40
0.18
  9
$DIMEXO
 40
0.0625
  9
$DIMDLI
 40
0.38
  9
$DIMRND
 40
0.0
  9
$DIMDLE
 40
0.0
  9
$DIMEXE
 40
0.18
  9
$DIMTP
 40
0.0
  9
$DIMTM
 40
0.0
  9
$DIMTXT
 40
0.18
  9
$DIMCEN
 40
0.09
  9
$DIMTSZ
 40
0.0
  9
$DIMTOL
 70
     0
  9
$DIMLIM
 70
     0
  9
$DIMTIH
 70
     1
  9
$DIMTOH
 70
     1
  9
$DIMSE1
 70
     0
  9
$DIMSE2
 70
     0
  9
$DIMTAD
 70
     0
  9
$DIMZIN
 70
     0
  9
$DIMBLK
  1

  9
$DIMASO
 70
     1
  9
$DIMSHO
 70
     1
  9
$DIMPOST
  1

  9
$DIMAPOST
  1

  9
$DIMALT
 70
     0
  9
$DIMALTD
 70
     2
  9
$DIMALTF
 40
25.4
  9
$DIMLFAC
 40
1.0
  9
$DIMTOFL
 70
     0
  9
$DIMTVP
 40
0.0
  9
$DIMTIX
 70
     0
  9
$DIMSOXD
 70
     0
  9
$DIMSAH
 70
     0
  9
$DIMBLK1
  1

  9
$DIMBLK2
  1

  9
$DIMSTYLE
  2
STANDARD
  9
$DIMCLRD
 70
     0
  9
$DIMCLRE
 70
     0
  9
$DIMCLRT
 70
     0
  9
$DIMTFAC
 40
1.0
  9
$DIMGAP
 40
0.09
  9
$LUNITS
 70
     2
  9
$LUPREC
 70
     4
  9
$SKETCHINC
 40
0.1
  9
$FILLETRAD
 40
0.5
  9
$AUNITS
 70
     0
  9
$AUPREC
 70
     0
  9
$MENU
  1
.
  9
$ELEVATION
 40
0.0
  9
$PELEVATION
 40
0.0
  9
$THICKNESS
 40
0.0
  9
$LIMCHECK
 70
     0
  9
$CHAMFERA
 40
0.0
  9
$CHAMFERB
 40
0.0
  9
$SKPOLY
 70
     0
  9
$TDCREATE
 40
2454910.5
  9
$TDUPDATE
 40
2459851.003581771
  9
$TDINDWG
 40
0.0000000116
  9
$TDUSRTIMER
 40
0.0000000116
  9
$USRTIMER
 70
     1
  9
$ANGBASE
 50
0.0
  9
$ANGDIR
 70
     0
  9
$PDMODE
 70
     0
  9
$PDSIZE
 40
0.0
  9
$PLINEWID
 40
0.0
  9
$COORDS
 70
     1
  9
$SPLFRAME
 70
     0
  9
$SPLINETYPE
 70
     6
  9
$SPLINESEGS
 70
     8
  9
$ATTDIA
 70
     0
  9
$ATTREQ
 70
     1
  9
$HANDLING
 70
     1
  9
$HANDSEED
  5
177
  9
$SURFTAB1
 70
     6
  9
$SURFTAB2
 70
     6
  9
$SURFTYPE
 70
     6
  9
$SURFU
 70
     6
  9
$SURFV
 70
     6
  9
$UCSNAME
  2

  9
$UCSORG
 10
0.0
 20
0.0
 30
0.0
  9
$UCSXDIR
 10
1.0
 20
0.0
 30
0.0
  9
$UCSYDIR
 10
0.0
 20
1.0
 30
0.0
  9
$PUCSNAME
  2

  9
$PUCSORG
 10
0.0
 20
0.0
 30
0.0
  9
$PUCSXDIR
 10
1.0
 20
0.0
 30
0.0
  9
$PUCSYDIR
 10
0.0
 20
1.0
 30
0.0
  9
$USERI1
 70
     0
  9
$USERI2
 70
     0
  9
$USERI3
 70
     0
  9
$USERI4
 70
     0
  9
$USERI5
 70
     0
  9
$USERR1
 40
0.0
  9
$USERR2
 40
0.0
  9
$USERR3
 40
0.0
  9
$USERR4
 40
0.0
  9
$USERR5
 40
0.0
  9
$WORLDVIEW
 70
     1
  9
$SHADEDGE
 70
     3
  9
$SHADEDIF
 70
    70
  9
$TILEMODE
 70
     1
  9
$MAXACTVP
 70
    64
  9
$PLIMCHECK
 70
     0
  9
$PEXTMIN
 10
1.000000000000000E+20
 20
1.000000000000000E+20
 30
1.000000000000000E+20
  9
$PEXTMAX
 10
-1.000000000000000E+20
 20
-1.000000000000000E+20
 30
-1.000000000000000E+20
  9
$PLIMMIN
 10
0.0
 20
0.0
  9
$PLIMMAX
 10
12.0
 20
9.0
  9
$UNITMODE
 70
     0
  9
$VISRETAIN
 70
     1
  9
$PLINEGEN
 70
     0
  9
$PSLTSCALE
 70
     1
  0
ENDSEC
  0
SECTION
  2
TABLES
  0
TABLE
  2
VPORT
 70
     1
  0
VPORT
  2
*ACTIVE
 70
     0
 10
0.0
 20
0.0
 11
1.0
 21
1.0
 12
10.42990654205607
 22
4.5
 13
0.0
 23
0.0
 14
0.5
 24
0.5
 15
0.5
 25
0.5
 16
0.0
 26
0.0
 36
1.0
 17
0.0
 27
0.0
 37
0.0
 40
9.0
 41
1.972972972850329
 42
50.0
 43
0.0
 44
0.0
 50
0.0
 51
0.0
 71
     0
 72
   100
 73
     1
 74
     3
 75
     0
 76
     0
 77
     0
 78
     0
  0
ENDTAB
  0
TABLE
  2
LTYPE
 70
     2
  0
LTYPE
  2
CONTINUOUS
 70
     0
  3
Solid line
 72
    65
 73
     0
 40
0.0
  0
LTYPE
  2
CONTINUOUS2
 70
     0
  3
Solid Line
 72
    65
 73
     0
 40
0.0
  0
ENDTAB
  0
TABLE
  2
LAYER
 70
     1
  0
LAYER
  2
0
 70
     0
 62
     7
  6
CONTINUOUS
  0
ENDTAB
  0
TABLE
  2
STYLE
 70
     1
  0
STYLE
  2
STANDARD
 70
     0
 40
0.0
 41
1.0
 50
0.0
 71
     0
 42
0.2
  3
txt
  4

  0
ENDTAB
  0
TABLE
  2
VIEW
 70
     0
  0
ENDTAB
  0
TABLE
  2
UCS
 70
     0
  0
ENDTAB
  0
TABLE
  2
APPID
 70
     1
  0
APPID
  2
ACAD
 70
     0
  0
ENDTAB
  0
TABLE
  2
DIMSTYLE
 70
     1
  0
DIMSTYLE
  2
STANDARD
 70
     0
  3

  4

  5

  6

  7

 40
1.0
 41
0.18
 42
0.0625
 43
0.38
 44
0.18
 45
0.0
 46
0.0
 47
0.0
 48
0.0
140
0.18
141
0.09
142
0.0
143
25.4
144
1.0
145
0.0
146
1.0
147
0.09
 71
     0
 72
     0
 73
     1
 74
     1
 75
     0
 76
     0
 77
     0
 78
     0
170
     0
171
     2
172
     0
173
     0
174
     0
175
     0
176
     0
177
     0
178
     0
  0
ENDTAB
  0
ENDSEC
  0
SECTION
  2
BLOCKS
  0
BLOCK
  8
0
  2
$MODEL_SPACE
 70
     0
 10
0.0
 20
0.0
 30
0.0
  3
$MODEL_SPACE
  1

  0
ENDBLK
  5
21
  8
0
  0
BLOCK
 67
     1
  8
0
  2
$PAPER_SPACE
 70
     0
 10
0.0
 20
0.0
 30
0.0
  3
$PAPER_SPACE
  1

  0
ENDBLK
  5
1D
 67
     1
  8
0
  0
ENDSEC
  0
SECTION
  2
ENTITIES
  0
POLYLINE
  5
6F
  8
0
 66
     1
 10
0.0
 20
0.0
 30
0.0
  0
VERTEX
  5
84
  8
0
 10
-137.0852111183114
 20
55.68063358746002
 30
0.0
  0
VERTEX
  5
85
  8
0
 10
141.3662215383252
 20
39.14757977347219
 30
0.0
  0
SEQEND
  5
169
  8
0
  0
POLYLINE
  5
70
  8
0
 66
     1
 10
0.0
 20
0.0
 30
0.0
  0
VERTEX
  5
86
  8
0
 10
525.4137099908859
 20
84.68675882604154
 30
0.0
  0
VERTEX
  5
87
  8
0
 10
624.569959990886
 20
84.68675882604154
 30
0.0
  0
SEQEND
  5
16A
  8
0
  0
POLYLINE
  5
71
  8
0
 66
     1
 10
0.0
 20
0.0
 30
0.0
  0
VERTEX
  5
88
  8
0
 10
623.382459990886
 20
64.68675882604154
 30
0.0
  0
VERTEX
  5
89
  8
0
 10
526.6012099908859
 20
64.68675882604154
 30
0.0
  0
SEQEND
  5
16B
  8
0
  0
POLYLINE
  5
72
  8
0
 66
     1
 10
0.0
 20
0.0
 30
0.0
  0
VERTEX
  5
8A
  8
0
 10
525.4137099908859
 20
84.68675882604154
 30
0.0
  0
VERTEX
  5
8B
  8
0
 10
624.569959990886
 20
84.68675882604154
 30
0.0
  0
VERTEX
  5
8C
  8
0
 10
623.382459990886
 20
64.68675882604154
 30
0.0
  0
SEQEND
  5
16C
  8
0
  0
POLYLINE
  5
73
  8
0
 66
     1
 10
0.0
 20
0.0
 30
0.0
  0
VERTEX
  5
8D
  8
0
 10
525.4137099908859
 20
84.68675882604154
 30
0.0
  0
VERTEX
  5
8E
  8
0
 10
526.6012099908859
 20
64.68675882604154
 30
0.0
  0
SEQEND
  5
16D
  8
0
  0
POLYLINE
  5
74
  8
0
 66
     1
 10
0.0
 20
0.0
 30
0.0
 70
     1
  0
VERTEX
  5
8F
  8
0
 10
318.222790488855
 20
100.0
 30
0.0
  0
VERTEX
  5
90
  8
0
 10
417.379040488855
 20
100.0
 30
0.0
  0
VERTEX
  5
91
  8
0
 10
417.379040488855
 20
54.99999999999999
 30
0.0
  0
VERTEX
  5
92
  8
0
 10
318.222790488855
 20
55.0
 30
0.0
  0
SEQEND
  5
16E
  8
0
  0
POLYLINE
  5
75
  8
0
 66
     1
 10
0.0
 20
0.0
 30
0.0
  0
VERTEX
  5
93
  8
0
 10
143.9091359892558
 20
-0.0000156943643823
 30
0.0
  0
VERTEX
  5
94
  8
0
 10
143.9135261385071
 20
0.7930340295395493
 30
0.0
  0
VERTEX
  5
95
  8
0
 10
143.929343353196
 20
1.585971523975809
 30
0.0
  0
VERTEX
  5
96
  8
0
 10
143.9565876333225
 20
2.378669859625473
 30
0.0
  0
VERTEX
  5
97
  8
0
 10
143.9952589788866
 20
3.171002107169613
 30
0.0
  0
VERTEX
  5
98
  8
0
 10
144.0453573898882
 20
3.962841337289306
 30
0.0
  0
VERTEX
  5
99
  8
0
 10
144.1068828663274
 20
4.754060620665624
 30
0.0
  0
VERTEX
  5
9A
  8
0
 10
144.1798354082042
 20
5.544533027979642
 30
0.0
  0
VERTEX
  5
9B
  8
0
 10
144.2642150155186
 20
6.334131629912436
 30
0.0
  0
VERTEX
  5
9C
  8
0
 10
144.3600216882706
 20
7.122729497145079
 30
0.0
  0
VERTEX
  5
9D
  8
0
 10
144.4672554264602
 20
7.910199700358645
 30
0.0
  0
VERTEX
  5
9E
  8
0
 10
144.5859162300873
 20
8.69641531023421
 30
0.0
  0
VERTEX
  5
9F
  8
0
 10
144.716004099152
 20
9.481249397452846
 30
0.0
  0
VERTEX
  5
A0
  8
0
 10
144.8575190336543
 20
10.26457503269563
 30
0.0
  0
VERTEX
  5
A1
  8
0
 10
145.0104610335942
 20
11.04626528664363
 30
0.0
  0
VERTEX
  5
A2
  8
0
 10
145.1748300989717
 20
11.82619322997793
 30
0.0
  0
VERTEX
  5
A3
  8
0
 10
145.3506262297867
 20
12.6042319333796
 30
0.0
  0
VERTEX
  5
A4
  8
0
 10
145.5378494260393
 20
13.38025446752972
 30
0.0
  0
VERTEX
  5
A5
  8
0
 10
145.7364996877295
 20
14.15413390310935
 30
0.0
  0
VERTEX
  5
A6
  8
0
 10
145.9465770148574
 20
14.92574331079957
 30
0.0
  0
VERTEX
  5
A7
  8
0
 10
146.1680814074227
 20
15.69495576128146
 30
0.0
  0
VERTEX
  5
A8
  8
0
 10
146.4010128654257
 20
16.4616443252361
 30
0.0
  0
VERTEX
  5
A9
  8
0
 10
146.6453713888662
 20
17.22568207334455
 30
0.0
  0
VERTEX
  5
AA
  8
0
 10
146.9011569777444
 20
17.98694207628789
 30
0.0
  0
VERTEX
  5
AB
  8
0
 10
147.1683696320601
 20
18.74529740474719
 30
0.0
  0
VERTEX
  5
AC
  8
0
 10
147.4470093518134
 20
19.50062112940354
 30
0.0
  0
VERTEX
  5
AD
  8
0
 10
147.7370761370042
 20
20.25278632093799
 30
0.0
  0
VERTEX
  5
AE
  8
0
 10
148.0385699876327
 20
21.00166605003164
 30
0.0
  0
VERTEX
  5
AF
  8
0
 10
148.3514909036987
 20
21.74713338736555
 30
0.0
  0
VERTEX
  5
B0
  8
0
 10
148.6758388852024
 20
22.48906140362079
 30
0.0
  0
VERTEX
  5
B1
  8
0
 10
149.0116139321435
 20
23.22732316947845
 30
0.0
  0
VERTEX
  5
B2
  8
0
 10
149.3588160445223
 20
23.96179175561959
 30
0.0
  0
VERTEX
  5
B3
  8
0
 10
149.7174452223387
 20
24.69234023272529
 30
0.0
 42
0.5382840457419542
  0
VERTEX
  5
B4
  8
0
 10
141.3662215383252
 20
39.14757977347219
 30
0.0
  0
VERTEX
  5
B5
  8
0
 10
-137.0852111183114
 20
55.68063358746002
 30
0.0
 42
0.7523415924467834
  0
VERTEX
  5
B6
  8
0
 10
-143.4956390164121
 20
37.56469615009721
 30
0.0
 42
0.2776409945978127
  0
VERTEX
  5
B7
  8
0
 10
-82.85273134633549
 20
32.74767478242944
 30
0.0
  0
VERTEX
  5
B8
  8
0
 10
-81.97978663718787
 20
32.73588805585906
 30
0.0
  0
VERTEX
  5
B9
  8
0
 10
-81.11569744837296
 20
32.70076853914493
 30
0.0
  0
VERTEX
  5
BA
  8
0
 10
-80.2606535581412
 20
32.64267722678787
 30
0.0
  0
VERTEX
  5
BB
  8
0
 10
-79.41484474474309
 20
32.56197511328864
 30
0.0
  0
VERTEX
  5
BC
  8
0
 10
-78.5784607864291
 20
32.45902319314801
 30
0.0
  0
VERTEX
  5
BD
  8
0
 10
-77.7516914614497
 20
32.3341824608668
 30
0.0
  0
VERTEX
  5
BE
  8
0
 10
-76.9347265480554
 20
32.18781391094575
 30
0.0
  0
VERTEX
  5
BF
  8
0
 10
-76.12775582449663
 20
32.02027853788567
 30
0.0
  0
VERTEX
  5
C0
  8
0
 10
-75.3309690690239
 20
31.83193733618733
 30
0.0
  0
VERTEX
  5
C1
  8
0
 10
-74.5445560598877
 20
31.62315130035151
 30
0.0
  0
VERTEX
  5
C2
  8
0
 10
-73.76870657533848
 20
31.394281424879
 30
0.0
  0
VERTEX
  5
C3
  8
0
 10
-73.00361039362676
 20
31.14568870427058
 30
0.0
  0
VERTEX
  5
C4
  8
0
 10
-72.24945729300299
 20
30.87773413302702
 30
0.0
  0
VERTEX
  5
C5
  8
0
 10
-71.50643705171763
 20
30.59077870564912
 30
0.0
  0
VERTEX
  5
C6
  8
0
 10
-70.77473944802121
 20
30.28518341663765
 30
0.0
  0
VERTEX
  5
C7
  8
0
 10
-70.05455426016418
 20
29.9613092604934
 30
0.0
  0
VERTEX
  5
C8
  8
0
 10
-69.34607126639702
 20
29.61951723171715
 30
0.0
  0
VERTEX
  5
C9
  8
0
 10
-68.64948024497022
 20
29.26016832480968
 30
0.0
  0
VERTEX
  5
CA
  8
0
 10
-67.96497097413425
 20
28.88362353427176
 30
0.0
  0
VERTEX
  5
CB
  8
0
 10
-67.2927332321396
 20
28.49024385460419
 30
0.0
  0
VERTEX
  5
CC
  8
0
 10
-66.63295679723672
 20
28.08039028030775
 30
0.0
  0
VERTEX
  5
CD
  8
0
 10
-65.9858314476761
 20
27.65442380588321
 30
0.0
  0
VERTEX
  5
CE
  8
0
 10
-65.35154696170827
 20
27.21270542583136
 30
0.0
  0
VERTEX
  5
CF
  8
0
 10
-64.73029311758366
 20
26.75559613465298
 30
0.0
  0
VERTEX
  5
D0
  8
0
 10
-64.12225969355275
 20
26.28345692684886
 30
0.0
  0
VERTEX
  5
D1
  8
0
 10
-63.52763646786602
 20
25.79664879691977
 30
0.0
  0
VERTEX
  5
D2
  8
0
 10
-62.94661321877396
 20
25.2955327393665
 30
0.0
  0
VERTEX
  5
D3
  8
0
 10
-62.37937972452706
 20
24.78046974868982
 30
0.0
  0
VERTEX
  5
D4
  8
0
 10
-61.82612576337577
 20
24.25182081939053
 30
0.0
  0
VERTEX
  5
D5
  8
0
 10
-61.2870411135706
 20
23.7099469459694
 30
0.0
  0
VERTEX
  5
D6
  8
0
 10
-60.76231555336201
 20
23.15520912292721
 30
0.0
  0
VERTEX
  5
D7
  8
0
 10
-60.25213886100048
 20
22.58796834476475
 30
0.0
  0
VERTEX
  5
D8
  8
0
 10
-59.75670081473649
 20
22.0085856059828
 30
0.0
  0
VERTEX
  5
D9
  8
0
 10
-59.27619119282053
 20
21.41742190108214
 30
0.0
  0
VERTEX
  5
DA
  8
0
 10
-58.81079977350308
 20
20.81483822456355
 30
0.0
  0
VERTEX
  5
DB
  8
0
 10
-58.36071633503462
 20
20.20119557092782
 30
0.0
  0
VERTEX
  5
DC
  8
0
 10
-57.92613065566561
 20
19.57685493467572
 30
0.0
  0
VERTEX
  5
DD
  8
0
 10
-57.50723251364654
 20
18.94217731030803
 30
0.0
  0
VERTEX
  5
DE
  8
0
 10
-57.1042116872279
 20
18.29752369232555
 30
0.0
  0
VERTEX
  5
DF
  8
0
 10
-56.71725795466016
 20
17.64325507522905
 30
0.0
  0
VERTEX
  5
E0
  8
0
 10
-56.34656109419379
 20
16.97973245351931
 30
0.0
  0
VERTEX
  5
E1
  8
0
 10
-55.99231088407929
 20
16.30731682169712
 30
0.0
  0
VERTEX
  5
E2
  8
0
 10
-55.65469710256712
 20
15.62636917426326
 30
0.0
  0
VERTEX
  5
E3
  8
0
 10
-55.33390952790777
 20
14.93725050571851
 30
0.0
  0
VERTEX
  5
E4
  8
0
 10
-55.03013793835172
 20
14.24032181056365
 30
0.0
  0
VERTEX
  5
E5
  8
0
 10
-54.74357211214945
 20
13.53594408329946
 30
0.0
  0
VERTEX
  5
E6
  8
0
 10
-54.47440182755143
 20
12.82447831842672
 30
0.0
  0
VERTEX
  5
E7
  8
0
 10
-54.22281686280815
 20
12.10628551044622
 30
0.0
  0
VERTEX
  5
E8
  8
0
 10
-53.98900699617009
 20
11.38172665385875
 30
0.0
  0
VERTEX
  5
E9
  8
0
 10
-53.77316200588773
 20
10.65116274316507
 30
0.0
  0
VERTEX
  5
EA
  8
0
 10
-53.57547167021153
 20
9.914954772865972
 30
0.0
  0
VERTEX
  5
EB
  8
0
 10
-53.39612576739198
 20
9.173463737462244
 30
0.0
  0
VERTEX
  5
EC
  8
0
 10
-53.23531407567958
 20
8.427050631454662
 30
0.0
  0
VERTEX
  5
ED
  8
0
 10
-53.09322637332478
 20
7.676076449344006
 30
0.0
  0
VERTEX
  5
EE
  8
0
 10
-52.97005243857807
 20
6.920902185631062
 30
0.0
  0
VERTEX
  5
EF
  8
0
 10
-52.86598204968993
 20
6.16188883481661
 30
0.0
  0
VERTEX
  5
F0
  8
0
 10
-52.78120498491084
 20
5.399397391401433
 30
0.0
  0
VERTEX
  5
F1
  8
0
 10
-52.7159110224913
 20
4.633788849886311
 30
0.0
  0
VERTEX
  5
F2
  8
0
 10
-52.67028994068176
 20
3.865424204772028
 30
0.0
  0
VERTEX
  5
F3
  8
0
 10
-52.6445315177327
 20
3.094664450559365
 30
0.0
  0
VERTEX
  5
F4
  8
0
 10
-52.63882553189461
 20
2.321870581749104
 30
0.0
  0
VERTEX
  5
F5
  8
0
 10
-52.65336176141798
 20
1.547403592842026
 30
0.0
  0
VERTEX
  5
F6
  8
0
 10
-52.68832998455327
 20
0.7716244783389148
 30
0.0
  0
VERTEX
  5
F7
  8
0
 10
-52.74391997955097
 20
-0.0051057672594488
 30
0.0
  0
SEQEND
  5
16F
  8
0
  0
POLYLINE
  5
76
  8
0
 66
     1
 10
0.0
 20
0.0
 30
0.0
  0
VERTEX
  5
F8
  8
0
 10
-15.85273134627566
 20
0.0
 30
0.0
  0
VERTEX
  5
F9
  8
0
 10
-15.85273134627566
 20
48.48245510099537
 30
0.0
  0
SEQEND
  5
170
  8
0
  0
POLYLINE
  5
77
  8
0
 66
     1
 10
0.0
 20
0.0
 30
0.0
  0
VERTEX
  5
FA
  8
0
 10
-35.85273134627566
 20
0.0
 30
0.0
  0
VERTEX
  5
FB
  8
0
 10
-35.85273134627566
 20
49.66995510099537
 30
0.0
  0
SEQEND
  5
171
  8
0
  0
POLYLINE
  5
78
  8
0
 66
     1
 10
0.0
 20
0.0
 30
0.0
  0
VERTEX
  5
FC
  8
0
 10
-35.85273134627566
 20
0.0
 30
0.0
  0
VERTEX
  5
FD
  8
0
 10
-35.85273134627566
 20
49.66995510099537
 30
0.0
  0
SEQEND
  5
172
  8
0
  0
POLYLINE
  5
79
  8
0
 66
     1
 10
0.0
 20
0.0
 30
0.0
  0
VERTEX
  5
FE
  8
0
 10
-137.0852111183114
 20
-55.68063358746002
 30
0.0
  0
VERTEX
  5
FF
  8
0
 10
141.3662215383252
 20
-39.14757977347219
 30
0.0
  0
SEQEND
  5
173
  8
0
  0
POLYLINE
  5
7A
  8
0
 66
     1
 10
0.0
 20
0.0
 30
0.0
  0
VERTEX
  5
100
  8
0
 10
143.9091359892558
 20
0.0000156943643823
 30
0.0
  0
VERTEX
  5
101
  8
0
 10
143.9135261385071
 20
-0.7930340295395493
 30
0.0
  0
VERTEX
  5
102
  8
0
 10
143.929343353196
 20
-1.585971523975809
 30
0.0
  0
VERTEX
  5
103
  8
0
 10
143.9565876333225
 20
-2.378669859625473
 30
0.0
  0
VERTEX
  5
104
  8
0
 10
143.9952589788866
 20
-3.171002107169613
 30
0.0
  0
VERTEX
  5
105
  8
0
 10
144.0453573898882
 20
-3.962841337289306
 30
0.0
  0
VERTEX
  5
106
  8
0
 10
144.1068828663274
 20
-4.754060620665624
 30
0.0
  0
VERTEX
  5
107
  8
0
 10
144.1798354082042
 20
-5.544533027979642
 30
0.0
  0
VERTEX
  5
108
  8
0
 10
144.2642150155186
 20
-6.334131629912436
 30
0.0
  0
VERTEX
  5
109
  8
0
 10
144.3600216882706
 20
-7.122729497145079
 30
0.0
  0
VERTEX
  5
10A
  8
0
 10
144.4672554264602
 20
-7.910199700358645
 30
0.0
  0
VERTEX
  5
10B
  8
0
 10
144.5859162300873
 20
-8.69641531023421
 30
0.0
  0
VERTEX
  5
10C
  8
0
 10
144.716004099152
 20
-9.481249397452846
 30
0.0
  0
VERTEX
  5
10D
  8
0
 10
144.8575190336543
 20
-10.26457503269563
 30
0.0
  0
VERTEX
  5
10E
  8
0
 10
145.0104610335942
 20
-11.04626528664363
 30
0.0
  0
VERTEX
  5
10F
  8
0
 10
145.1748300989717
 20
-11.82619322997793
 30
0.0
  0
VERTEX
  5
110
  8
0
 10
145.3506262297867
 20
-12.6042319333796
 30
0.0
  0
VERTEX
  5
111
  8
0
 10
145.5378494260393
 20
-13.38025446752972
 30
0.0
  0
VERTEX
  5
112
  8
0
 10
145.7364996877295
 20
-14.15413390310935
 30
0.0
  0
VERTEX
  5
113
  8
0
 10
145.9465770148574
 20
-14.92574331079957
 30
0.0
  0
VERTEX
  5
114
  8
0
 10
146.1680814074227
 20
-15.69495576128146
 30
0.0
  0
VERTEX
  5
115
  8
0
 10
146.4010128654257
 20
-16.4616443252361
 30
0.0
  0
VERTEX
  5
116
  8
0
 10
146.6453713888662
 20
-17.22568207334455
 30
0.0
  0
VERTEX
  5
117
  8
0
 10
146.9011569777444
 20
-17.98694207628789
 30
0.0
  0
VERTEX
  5
118
  8
0
 10
147.1683696320601
 20
-18.74529740474719
 30
0.0
  0
VERTEX
  5
119
  8
0
 10
147.4470093518134
 20
-19.50062112940354
 30
0.0
  0
VERTEX
  5
11A
  8
0
 10
147.7370761370042
 20
-20.25278632093799
 30
0.0
  0
VERTEX
  5
11B
  8
0
 10
148.0385699876327
 20
-21.00166605003164
 30
0.0
  0
VERTEX
  5
11C
  8
0
 10
148.3514909036987
 20
-21.74713338736555
 30
0.0
  0
VERTEX
  5
11D
  8
0
 10
148.6758388852024
 20
-22.48906140362079
 30
0.0
  0
VERTEX
  5
11E
  8
0
 10
149.0116139321435
 20
-23.22732316947845
 30
0.0
  0
VERTEX
  5
11F
  8
0
 10
149.3588160445223
 20
-23.96179175561959
 30
0.0
  0
VERTEX
  5
120
  8
0
 10
149.7174452223387
 20
-24.69234023272529
 30
0.0
 42
-0.5382840457419542
  0
VERTEX
  5
121
  8
0
 10
141.3662215383252
 20
-39.14757977347219
 30
0.0
  0
VERTEX
  5
122
  8
0
 10
-137.0852111183114
 20
-55.68063358746002
 30
0.0
 42
-0.7523415924467834
  0
VERTEX
  5
123
  8
0
 10
-143.4956390164121
 20
-37.56469615009721
 30
0.0
 42
-0.2776409945978127
  0
VERTEX
  5
124
  8
0
 10
-82.85273134633549
 20
-32.74767478242944
 30
0.0
  0
VERTEX
  5
125
  8
0
 10
-81.97978663718787
 20
-32.73588805585906
 30
0.0
  0
VERTEX
  5
126
  8
0
 10
-81.11569744837296
 20
-32.70076853914493
 30
0.0
  0
VERTEX
  5
127
  8
0
 10
-80.2606535581412
 20
-32.64267722678787
 30
0.0
  0
VERTEX
  5
128
  8
0
 10
-79.41484474474309
 20
-32.56197511328864
 30
0.0
  0
VERTEX
  5
129
  8
0
 10
-78.5784607864291
 20
-32.45902319314801
 30
0.0
  0
VERTEX
  5
12A
  8
0
 10
-77.7516914614497
 20
-32.3341824608668
 30
0.0
  0
VERTEX
  5
12B
  8
0
 10
-76.9347265480554
 20
-32.18781391094575
 30
0.0
  0
VERTEX
  5
12C
  8
0
 10
-76.12775582449663
 20
-32.02027853788567
 30
0.0
  0
VERTEX
  5
12D
  8
0
 10
-75.3309690690239
 20
-31.83193733618733
 30
0.0
  0
VERTEX
  5
12E
  8
0
 10
-74.5445560598877
 20
-31.62315130035151
 30
0.0
  0
VERTEX
  5
12F
  8
0
 10
-73.76870657533848
 20
-31.394281424879
 30
0.0
  0
VERTEX
  5
130
  8
0
 10
-73.00361039362676
 20
-31.14568870427058
 30
0.0
  0
VERTEX
  5
131
  8
0
 10
-72.24945729300299
 20
-30.87773413302702
 30
0.0
  0
VERTEX
  5
132
  8
0
 10
-71.50643705171763
 20
-30.59077870564912
 30
0.0
  0
VERTEX
  5
133
  8
0
 10
-70.77473944802121
 20
-30.28518341663765
 30
0.0
  0
VERTEX
  5
134
  8
0
 10
-70.05455426016418
 20
-29.9613092604934
 30
0.0
  0
VERTEX
  5
135
  8
0
 10
-69.34607126639702
 20
-29.61951723171715
 30
0.0
  0
VERTEX
  5
136
  8
0
 10
-68.64948024497022
 20
-29.26016832480968
 30
0.0
  0
VERTEX
  5
137
  8
0
 10
-67.96497097413425
 20
-28.88362353427176
 30
0.0
  0
VERTEX
  5
138
  8
0
 10
-67.2927332321396
 20
-28.49024385460419
 30
0.0
  0
VERTEX
  5
139
  8
0
 10
-66.63295679723672
 20
-28.08039028030775
 30
0.0
  0
VERTEX
  5
13A
  8
0
 10
-65.9858314476761
 20
-27.65442380588321
 30
0.0
  0
VERTEX
  5
13B
  8
0
 10
-65.35154696170827
 20
-27.21270542583136
 30
0.0
  0
VERTEX
  5
13C
  8
0
 10
-64.73029311758366
 20
-26.75559613465298
 30
0.0
  0
VERTEX
  5
13D
  8
0
 10
-64.12225969355275
 20
-26.28345692684886
 30
0.0
  0
VERTEX
  5
13E
  8
0
 10
-63.52763646786602
 20
-25.79664879691977
 30
0.0
  0
VERTEX
  5
13F
  8
0
 10
-62.94661321877396
 20
-25.2955327393665
 30
0.0
  0
VERTEX
  5
140
  8
0
 10
-62.37937972452706
 20
-24.78046974868982
 30
0.0
  0
VERTEX
  5
141
  8
0
 10
-61.82612576337577
 20
-24.25182081939053
 30
0.0
  0
VERTEX
  5
142
  8
0
 10
-61.2870411135706
 20
-23.7099469459694
 30
0.0
  0
VERTEX
  5
143
  8
0
 10
-60.76231555336201
 20
-23.15520912292721
 30
0.0
  0
VERTEX
  5
144
  8
0
 10
-60.25213886100048
 20
-22.58796834476475
 30
0.0
  0
VERTEX
  5
145
  8
0
 10
-59.75670081473649
 20
-22.0085856059828
 30
0.0
  0
VERTEX
  5
146
  8
0
 10
-59.27619119282053
 20
-21.41742190108214
 30
0.0
  0
VERTEX
  5
147
  8
0
 10
-58.81079977350308
 20
-20.81483822456355
 30
0.0
  0
VERTEX
  5
148
  8
0
 10
-58.36071633503462
 20
-20.20119557092782
 30
0.0
  0
VERTEX
  5
149
  8
0
 10
-57.92613065566561
 20
-19.57685493467572
 30
0.0
  0
VERTEX
  5
14A
  8
0
 10
-57.50723251364654
 20
-18.94217731030803
 30
0.0
  0
VERTEX
  5
14B
  8
0
 10
-57.1042116872279
 20
-18.29752369232555
 30
0.0
  0
VERTEX
  5
14C
  8
0
 10
-56.71725795466016
 20
-17.64325507522905
 30
0.0
  0
VERTEX
  5
14D
  8
0
 10
-56.34656109419379
 20
-16.97973245351931
 30
0.0
  0
VERTEX
  5
14E
  8
0
 10
-55.99231088407929
 20
-16.30731682169712
 30
0.0
  0
VERTEX
  5
14F
  8
0
 10
-55.65469710256712
 20
-15.62636917426326
 30
0.0
  0
VERTEX
  5
150
  8
0
 10
-55.33390952790777
 20
-14.93725050571851
 30
0.0
  0
VERTEX
  5
151
  8
0
 10
-55.03013793835172
 20
-14.24032181056365
 30
0.0
  0
VERTEX
  5
152
  8
0
 10
-54.74357211214945
 20
-13.53594408329946
 30
0.0
  0
VERTEX
  5
153
  8
0
 10
-54.47440182755143
 20
-12.82447831842672
 30
0.0
  0
VERTEX
  5
154
  8
0
 10
-54.22281686280815
 20
-12.10628551044622
 30
0.0
  0
VERTEX
  5
155
  8
0
 10
-53.98900699617009
 20
-11.38172665385875
 30
0.0
  0
VERTEX
  5
156
  8
0
 10
-53.77316200588773
 20
-10.65116274316507
 30
0.0
  0
VERTEX
  5
157
  8
0
 10
-53.57547167021153
 20
-9.914954772865972
 30
0.0
  0
VERTEX
  5
158
  8
0
 10
-53.39612576739198
 20
-9.173463737462244
 30
0.0
  0
VERTEX
  5
159
  8
0
 10
-53.23531407567958
 20
-8.427050631454662
 30
0.0
  0
VERTEX
  5
15A
  8
0
 10
-53.09322637332478
 20
-7.676076449344006
 30
0.0
  0
VERTEX
  5
15B
  8
0
 10
-52.97005243857807
 20
-6.920902185631062
 30
0.0
  0
VERTEX
  5
15C
  8
0
 10
-52.86598204968993
 20
-6.16188883481661
 30
0.0
  0
VERTEX
  5
15D
  8
0
 10
-52.78120498491084
 20
-5.399397391401433
 30
0.0
  0
VERTEX
  5
15E
  8
0
 10
-52.7159110224913
 20
-4.633788849886311
 30
0.0
  0
VERTEX
  5
15F
  8
0
 10
-52.67028994068176
 20
-3.865424204772028
 30
0.0
  0
VERTEX
  5
160
  8
0
 10
-52.6445315177327
 20
-3.094664450559365
 30
0.0
  0
VERTEX
  5
161
  8
0
 10
-52.63882553189461
 20
-2.321870581749104
 30
0.0
  0
VERTEX
  5
162
  8
0
 10
-52.65336176141798
 20
-1.547403592842026
 30
0.0
  0
VERTEX
  5
163
  8
0
 10
-52.68832998455327
 20
-0.7716244783389148
 30
0.0
  0
VERTEX
  5
164
  8
0
 10
-52.74391997955097
 20
0.0051057672594488
 30
0.0
  0
SEQEND
  5
174
  8
0
  0
POLYLINE
  5
7B
  8
0
 66
     1
 10
0.0
 20
0.0
 30
0.0
  0
VERTEX
  5
165
  8
0
 10
-15.85273134627566
 20
0.0
 30
0.0
  0
VERTEX
  5
166
  8
0
 10
-15.85273134627566
 20
-48.48245510099537
 30
0.0
  0
SEQEND
  5
175
  8
0
  0
POLYLINE
  5
7C
  8
0
 66
     1
 10
0.0
 20
0.0
 30
0.0
  0
VERTEX
  5
167
  8
0
 10
-35.85273134627566
 20
0.0
 30
0.0
  0
VERTEX
  5
168
  8
0
 10
-35.85273134627566
 20
-49.66995510099537
 30
0.0
  0
SEQEND
  5
176
  8
0
  0
ENDSEC
  0
EOF
