0
SECTION
2
HEADER
9
$INSUNITS
70
4
9
$ACADVER
1
AC1014
9
$HANDSEED
5
FFFF
0
ENDSEC
0
SECTION
2
TABLES
0
TABLE
2
VPORT
5
8
100
AcDbSymbolTable
0
ENDTAB
0
TABLE
2
LTYPE
5
5
100
AcDbSymbolTable
0
LTYPE
5
14
100
AcDbSymbolTableRecord
100
AcDbLinetypeTableRecord
2
BYBLOCK
70
0
0
LTYPE
5
15
100
AcDbSymbolTableRecord
100
AcDbLinetypeTableRecord
2
BYLAYER
70
0
0
ENDTAB
0
TABLE
2
LAYER
5
2
100
AcDbSymbolTable
70
2
0
LAYER
5
50
100
AcDbSymbolTableRecord
100
AcDbLayerTableRecord
2
0
70
0
6
CONTINUOUS
0
ENDTAB
0
TABLE
2
STYLE
5
3
100
AcDbSymbolTable
70
1
0
STYLE
5
11
100
AcDbSymbolTableRecord
100
AcDbTextStyleTableRecord
2
STANDARD
70
0
0
ENDTAB
0
TABLE
2
VIEW
5
6
100
AcDbSymbolTable
70
0
0
ENDTAB
0
TABLE
2
UCS
5
7
100
AcDbSymbolTable
70
0
0
ENDTAB
0
TABLE
2
APPID
5
9
100
AcDbSymbolTable
70
2
0
APPID
5
12
100
AcDbSymbolTableRecord
100
AcDbRegAppTableRecord
2
ACAD
70
0
0
ENDTAB
0
TABLE
2
DIMSTYLE
5
A
100
AcDbSymbolTable
70
1
0
ENDTAB
0
TABLE
2
BLOCK_RECORD
5
1
100
AcDbSymbolTable
70
1
0
BLOCK_RECORD
5
1F
100
AcDbSymbolTableRecord
100
AcDbBlockTableRecord
2
*MODEL_SPACE
0
BLOCK_RECORD
5
1B
100
AcDbSymbolTableRecord
100
AcDbBlockTableRecord
2
*PAPER_SPACE
0
ENDTAB
0
ENDSEC
0
SECTION
2
BLOCKS
0
BLOCK
5
20
100
AcDbEntity
100
AcDbBlockBegin
2
*MODEL_SPACE
0
ENDBLK
5
21
100
AcDbEntity
100
AcDbBlockEnd
0
BLOCK
5
1C
100
AcDbEntity
100
AcDbBlockBegin
2
*PAPER_SPACE
0
ENDBLK
5
1D
100
AcDbEntity
100
AcDbBlockEnd
0
ENDSEC
0
SECTION
2
ENTITIES
0
LWPOLYLINE
5
100
100
AcDbEntity
8
0
100
AcDbPolyline
90
14
70
1
43
0.0
10
14.607252681549889
20
50.702297365207073
10
-19.069394194612805
20
49.198099496454113
42
0.2282434743901513
10
-30.533179233454707
20
43.032775356816806
10
-50.354195871887555
20
15.765460573929079
42
0.22824347439014911
10
-52.681504422317673
20
2.9586957960991711
10
-43.721261019225288
20
-29.538891717552662
42
0.22824347439014933
10
-35.159582274326979
20
-39.343342045476533
10
-4.1653248678939203
20
-52.599856062136077
42
0.2282434743901508
10
8.8382224510057412
20
-52.019040868888247
10
38.527185866104404
20
-36.052055950405574
42
0.22824347439015069
10
46.180665403848913
20
-25.523340922972455
10
52.207939831557994
20
7.6436776198994005
42
0.22824347439015019
10
48.748125393694728
20
20.191955319214273
10
26.575050255957105
20
45.583566039811807
42
0.22824347439014955
0
LWPOLYLINE
5
101
100
AcDbEntity
8
0
100
AcDbPolyline
90
14
70
1
43
0.0
10
-47.699944932752906
20
-50.29414018661997
10
-3.4224343521342515
20
-69.232017353276447
42
0.22824347439015161
10
9.5811129667654029
20
-68.651202160028632
10
51.993917845477775
20
-45.841223705053373
42
0.2282434743901498
10
59.647397383222298
20
-35.312508677620244
10
68.257789422806667
20
12.06894638362523
42
0.22824347439014983
10
64.797974984943437
20
24.617224082940126
10
33.122153359603963
20
60.890953683793761
42
0.22824347439015036
10
21.154355785196756
20
66.009685009189027
10
-26.955139752178553
20
63.860830910970506
42
0.22824347439015094
10
-38.418924791020437
20
57.695506771333214
10
-66.734662845924518
20
18.742199938636453
42
0.22824347439014792
10
-69.061971396354636
20
5.935435160806537
10
-56.261623677651215
20
-40.489689858696096
42
0.22824347439014958
0
LINE
5
102
100
AcDbEntity
8
0
100
AcDbLine
10
37.661587824825922
20
32.887760679513036
30
0
11
34.372811756874611
21
36.653919461995635
31
0
0
LINE
5
103
100
AcDbEntity
8
0
100
AcDbLine
10
34.372811756874611
20
36.653919461995635
30
0
11
45.671288104322386
21
46.520247665849553
31
0
0
LINE
5
104
100
AcDbEntity
8
0
100
AcDbLine
10
37.661587824825922
20
32.887760679513036
30
0
11
40.950363892777219
21
29.121601897030445
31
0
0
LINE
5
105
100
AcDbEntity
8
0
100
AcDbLine
10
40.950363892777219
20
29.121601897030445
30
0
11
52.248840240225007
21
38.987930100884363
31
0
0
LINE
5
106
100
AcDbEntity
8
0
100
AcDbLine
10
2.763949086551607
20
50.173305506483715
30
0
11
2.0946278595921632
21
65.158365035732913
31
0
0
LINE
5
107
100
AcDbEntity
8
0
100
AcDbLine
10
-2.2310707565314569
20
49.950198430830568
30
0
11
2.763949086551607
21
50.173305506483715
31
0
0
LINE
5
108
100
AcDbEntity
8
0
100
AcDbLine
10
-2.2310707565314569
20
49.950198430830568
30
0
11
-7.2260905996145164
21
49.727091355177429
31
0
0
LINE
5
109
100
AcDbEntity
8
0
100
AcDbLine
10
-7.2260905996145164
20
49.727091355177429
30
0
11
-7.8954118265739526
21
64.71215088442662
31
0
0
LINE
5
110
100
AcDbEntity
8
0
100
AcDbLine
10
-37.503775756133848
20
33.443486720640031
30
0
11
-49.636882021935193
21
42.26322211025191
31
0
0
LINE
5
111
100
AcDbEntity
8
0
100
AcDbLine
10
-40.44368755267115
20
29.399117965372916
30
0
11
-37.503775756133848
21
33.443486720640031
31
0
0
LINE
5
112
100
AcDbEntity
8
0
100
AcDbLine
10
-40.44368755267115
20
29.399117965372916
30
0
11
-43.383599349208446
21
25.354749210105805
31
0
0
LINE
5
113
100
AcDbEntity
8
0
100
AcDbLine
10
-43.383599349208446
20
25.354749210105805
30
0
11
-55.516705615009798
21
34.174484599717687
31
0
0
LINE
5
114
100
AcDbEntity
8
0
100
AcDbLine
10
-49.530392516844145
20
-8.4699596886496415
30
0
11
-63.990807333075601
21
-12.456989076867671
31
0
0
LINE
5
115
100
AcDbEntity
8
0
100
AcDbLine
10
-48.201382720771463
20
-13.290097960726786
30
0
11
-49.530392516844145
21
-8.4699596886496415
31
0
0
LINE
5
116
100
AcDbEntity
8
0
100
AcDbLine
10
-48.201382720771463
20
-13.290097960726786
30
0
11
-46.872372924698794
21
-18.110236232803942
31
0
0
LINE
5
117
100
AcDbEntity
8
0
100
AcDbLine
10
-46.872372924698794
20
-18.110236232803942
30
0
11
-61.332787740930243
21
-22.097265621021975
31
0
0
LINE
5
118
100
AcDbEntity
8
0
100
AcDbLine
10
-24.259613476491054
20
-44.005353696695273
30
0
11
-30.158349547824184
21
-57.796833412837181
31
0
0
LINE
5
119
100
AcDbEntity
8
0
100
AcDbLine
10
-19.662453571110422
20
-45.971599053806322
30
0
11
-24.259613476491054
21
-44.005353696695273
31
0
0
LINE
5
120
100
AcDbEntity
8
0
100
AcDbLine
10
-19.662453571110422
20
-45.971599053806322
30
0
11
-15.065293665729788
21
-47.937844410917378
31
0
0
LINE
5
121
100
AcDbEntity
8
0
100
AcDbLine
10
-15.065293665729788
20
-47.937844410917378
30
0
11
-20.964029737062916
21
-61.729324127059265
31
0
0
LINE
5
122
100
AcDbEntity
8
0
100
AcDbLine
10
19.279149317590392
20
-46.403818825502427
30
0
11
26.383960565156933
21
-59.614483348396512
31
0
0
LINE
5
123
100
AcDbEntity
8
0
100
AcDbLine
10
23.682704158555087
20
-44.035548409646914
30
0
11
19.279149317590392
21
-46.403818825502427
31
0
0
LINE
5
124
100
AcDbEntity
8
0
100
AcDbLine
10
23.682704158555087
20
-44.035548409646914
30
0
11
28.086258999519789
21
-41.667277993791416
31
0
0
LINE
5
125
100
AcDbEntity
8
0
100
AcDbLine
10
28.086258999519789
20
-41.667277993791416
30
0
11
35.191070247086316
21
-54.877942516685501
31
0
0
LINE
5
126
100
AcDbEntity
8
0
100
AcDbLine
10
48.3003194525498
20
-13.859261913306868
30
0
11
63.058610237860862
21
-16.541211408767829
31
0
0
LINE
5
127
100
AcDbEntity
8
0
100
AcDbLine
10
49.194302617703457
20
-8.9398316515365206
30
0
11
48.3003194525498
21
-13.859261913306868
31
0
0
LINE
5
128
100
AcDbEntity
8
0
100
AcDbLine
10
49.194302617703457
20
-8.9398316515365206
30
0
11
50.08828578285712
21
-4.0204013897661772
31
0
0
LINE
5
129
100
AcDbEntity
8
0
100
AcDbLine
10
50.08828578285712
20
-4.0204013897661772
30
0
11
64.84657656816816
21
-6.7023508852271307
31
0
0
ENDSEC
0
SECTION
2
OBJECTS
0
DICTIONARY
5
C
100
AcDbDictionary
3
ACAD_GROUP
350
D
3
ACAD_MLINESTYLE
350
17
0
DICTIONARY
5
D
100
AcDbDictionary
0
DICTIONARY
5
1A
330
C
100
AcDbDictionary
0
DICTIONARY
5
17
100
AcDbDictionary
0
ENDSEC
0
EOF
